Thin Lizzy - Soldier Of Fortune tab

-------------------------------------------------------------------------
SOLDIER OF FORTUNE - Thin Lizzy
-------------------------------------------------------------------------
Tabbed by: phildtankup
Email: phildtankup@yahoo.co.uk

************************************

| /   slide up
| \   slide down
| h   hammer-on
| p   pull-off
| ~   vibrato
| b   Bend
| r   Release

************************************

Tuning: Down a semi-tone to Eb (as played on Still Dangerous live cd)

Intro x4

e|----------------------------------------------------------------------|
B|----8~----------------------------------------------------------------|
G|----7~-----------7~----------5~----------7~---------------------------|
D|----5~-----------7~----------5~----------7~---------------------------|
A|-----------------5~----------3~----------5~---------------------------|
E|----------------------------------------------------------------------|

Opening riff (with harmony guitar)

e|----------------------------------------------------------------------|
B|----------------------------------------------------------------------|
G|------7-7-------------------------------------------------------------|
D|--9-9-----9-7--9p7\5--7-7/9--7-7\5------------------------------------|
A|------------------------------------7-5~------------------------------|
E|----------------------------------------------------------------------|

e|----------------------------------------------------------------------|
B|----------------------------------------------------------------------|
G|------7-7-------------------------------------------------------------|
D|--9-9-----9-7--9p7\5--7-7/9--7-7--9-7~--------------------------------|
A|----------------------------------------------------------------------|
E|----------------------------------------------------------------------|

e|----------------------------------------------------------------------|
B|----------------------------------------------------------------------|
G|------7-7-------------------------------------------------------------|
D|--9-9-----9-7--9p7\5--7-7/9--7-7\5------------------------------------|
A|------------------------------------7-5~------------------------------|
E|----------------------------------------------------------------------|

e|----------------------------------------------------------------------|
B|----------------------------------------------------------------------|
G|------7-7-------------------------------------------------------------|
D|--9-9-----9-7--9p7\5--7-7/9--7-7--9-7~--------------------------------|
A|----------------------------------------------------------------------|
E|----------------------------------------------------------------------|

Verse x4

e|----------------------------------------------------------------------|
B|---8--8---------------------------------------------------------------|
G|---7--7----7--7----5--5----5--5----7--7-------------------------------|
D|---5--5----7--7----5--5----5--5----7--7-------------------------------|
A|-----------5--5----3--3----3--3----5--5-------------------------------|
E|----------------------------------------------------------------------|

Riff (with Harmony)

e|----------------------------------------------------------------------|
B|----------------------------------------------------------------------|
G|---4--------------4-------------4-------------------------------------|
D|---------5-----7----7-5------7----7-5---------------------------------|
A|-----5-7---7-5----------7-5-----------7-5~~---------------------------|
E|----------------------------------------------------------------------|

e|----------------------------------------------------------------------|
B|----------------------------------------------------------------------|
G|---4--------------4-------------4---------4---------------------------|
D|---------5-----7----7-5------7----7-5--7-----7~~----------------------|
A|-----5-7---7-5----------7-5-------------------------------------------|
E|----------------------------------------------------------------------|

e|----------------------------------------------------------------------|
B|----------------------------------------------------------------------|
G|---4-5--7---4-4-5--7-------4--------------4---------------------------|
D|------------------------7----7-5-------7-----7-5----------------------|
A|---------------------------------7-5-------------7-5~~----------------|
E|----------------------------------------------------------------------|

e|----------------------------------------------------------------------|
B|----------------------------------------------------------------------|
G|---4--------------4-------------4-------------------------------------|
D|---------5-----7----7-5----------------5-5--2~------------------------|
A|-----5-7---7-5----------7-5--------5-7------2~------------------------|
E|--------------------------------------------0~------------------------|

Chorus x 3

e|----------------------------------------------------------------------|
B|----------------------------------------------------------------------|
G|----------------------------------------------------------------------|
D|--------------------------4---4---5-4-5---7-5-7---7/9~~~--------------|
A|-----------5---5---7-5-7----7-----------------------------------------|
E|---3-5-7-----7--------------------------------------------------------|

Lead break

e|-----12--15-12-----12-------------------------------------------------|
B|--15-----------15-----15-12--15-12-----12-----------------------------|
G|-----------------------------------14-----14-12--14-12-----12---------|
D|-------------------------------------------------------14-----14-12---|
A|----------------------------------------------------------------------|
E|----------------------------------------------------------------------|

e|----------------------------------------------------------------------|
B|----------------------------------------------------------------------|
G|--------------------------------------------------------------12~~~~--|
D|--14-12-----12----------------------------12----12--14-12-14----------|
A|--------14-----14-12--12-10-12--14-12-14-----14-----------------------|
E|----------------------------------------------------------------------|

Solo

e|----------------------------------------------------------------------|
B|--15b17~--15b17r15p12--15b17~--15b17r15p12----------------------------|
G|-------------------------------------------14b16r14p12----12~~--------|
D|-------------------------------------------------------14-------------|
A|----------------------------------------------------------------------|
E|----------------------------------------------------------------------|

e|-----15---------------------------------------------------------------|
B|--12----15b17~--15b17r15p12-------------------------------------------|
G|----------------------------14b16r14p12-------------------------------|
D|-----------------------------------------12/14~-----------------------|
A|----------------------------------------------------------------------|
E|----------------------------------------------------------------------|

e|----------------------------------------------------------------------|
B|----------------------------------------------------------------------|
G|----------------9-11-12-11~--9-7-9~--7/14b16~-------------------------|
D|--------9-10-12-------------------------------------------------------|
A|--10-12---------------------------------------------------------------|
E|----------------------------------------------------------------------|

e|---------------------------------17b19-17b19r17-17b19~----------------|
B|----------------------------------------------------------------------|
G|--9h11p9\7--7h9p7\5--5h7p5\4------------------------------------------|
D|-----------------------------5~---------------------------------------|
A|----------------------------------------------------------------------|
E|----------------------------------------------------------------------|

e|-15h17p15\14--14h15p14\12---------------------------------------------|
B|---------------------------15b17~-------------------------------------|
G|-----------------------------------12h14p12\11--11--11-12-11-9--------|
D|---------------------------------------------------------------12~----|
A|----------------------------------------------------------------------|
E|----------------------------------------------------------------------|

Back to opening riff

e|----------------------------------------------------------------------|
B|----------------------------------------------------------------------|
G|------7-7-------------------------------------------------------------|
D|--9-9-----9-7--9p7\5--7-7/9--7-7\5------------------------------------|
A|------------------------------------7-5~------------------------------|
E|----------------------------------------------------------------------|

e|----------------------------------------------------------------------|
B|----------------------------------------------------------------------|
G|------7-7-------------------------------------------------------------|
D|--9-9-----9-7--9p7\5--7-7/9--7-7--9-7~--------------------------------|
A|----------------------------------------------------------------------|
E|----------------------------------------------------------------------|

e|----------------------------------------------------------------------|
B|----------------------------------------------------------------------|
G|------7-7-------------------------------------------------------------|
D|--9-9-----9-7--9p7\5--7-7/9--7-7\5------------------------------------|
A|------------------------------------7-5~------------------------------|
E|----------------------------------------------------------------------|

e|----------------------------------------------------------------------|
B|----------------------------------------------------------------------|
G|------7-7-------------------------------------------------------------|
D|--9-9-----9-7--9p7\5--7-7/9--7-7--9-7~--------------------------------|
A|----------------------------------------------------------------------|
E|----------------------------------------------------------------------|

Riff (with Harmony)

e|----------------------------------------------------------------------|
B|----------------------------------------------------------------------|
G|---4--------------4-------------4-------------------------------------|
D|---------5-----7----7-5------7----7-5---------------------------------|
A|-----5-7---7-5----------7-5-----------7-5~~---------------------------|
E|----------------------------------------------------------------------|

e|----------------------------------------------------------------------|
B|----------------------------------------------------------------------|
G|---4--------------4-------------4---------4---------------------------|
D|---------5-----7----7-5------7----7-5--7-----7~~----------------------|
A|-----5-7---7-5----------7-5-------------------------------------------|
E|----------------------------------------------------------------------|

e|----------------------------------------------------------------------|
B|----------------------------------------------------------------------|
G|---4-5--7---4-4-5--7-------4--------------4---------------------------|
D|------------------------7----7-5-------7-----7-5----------------------|
A|---------------------------------7-5-------------7-5~~----------------|
E|----------------------------------------------------------------------|

e|----------------------------------------------------------------------|
B|----------------------------------------------------------------------|
G|---4--------------4-------------4-------------------------------------|
D|---------5-----7----7-5----------------5-5--2~------------------------|
A|-----5-7---7-5----------7-5--------5-7------2~------------------------|
E|--------------------------------------------0~------------------------|

Chorus x 3

e|----------------------------------------------------------------------|
B|----------------------------------------------------------------------|
G|----------------------------------------------------------------------|
D|--------------------------4---4---5-4-5---7-5-7---7/9~~~--------------|
A|-----------5---5---7-5-7----7-----------------------------------------|
E|---3-5-7-----7--------------------------------------------------------|

Lead break to finish

e|-----12--15-12-----12-------------------------------------------------|
B|--15-----------15-----15-12--15-12-----12-----------------------------|
G|-----------------------------------14-----14-12--14-12-----12---------|
D|-------------------------------------------------------14-----14-12---|
A|----------------------------------------------------------------------|
E|----------------------------------------------------------------------|

e|----------------------------------------------------------------------|
B|----------------------------------------------------------------------|
G|--------------------------------------------------------------12~~~~--|
D|--14-12-----12----------------------------12----12--14-12-14----------|
A|--------14-----14-12--12-10-12--14-12-14-----14-----------------------|
E|----------------------------------------------------------------------|

Tap to rate this tab
 
# A B C D E F G H I J K L M N O P Q R S T U V W X Y Z