Thin Lizzy - Little Darling tab

-------------------------------------------------------------------------------
                          LITTLE DARLING Ė Thin Lizzy
                                  (P Lynnot)
                           Remembering Part 1 [1976]
-------------------------------------------------------------------------------


Tabbed by: varannion
Email:     dm_hughes1@hotmail.com


Tuning: standard

  Intro

      E
e|----------------------------|--------------------------|
B|----------------------------|--------------------------|
G|----------------------------|--------------------------|
D|----------------------------|--------------------------|
A|----2--2--4--2--2--2--4--2--|--2--2--4--2--0--------2--|
E|----0--0--0--0--0--0--0--0--|--0--0--0--0-----4--2--0--|



      E
e|------------------------------|--------------------------|
B|------------------------------|--------------------------|
G|------------------------------|--------------------------|
D|------------------------------|--------------------------|
A|----(2)--2--4--2--2--2--4--2--|--2--2--4--2--0--------2--|
E|----(0)--0--0--0--0--0--0--0--|--0--0--0--0-----4--2--0--|

  Verse

      E
e|----------------------------|--------------------------|
B|----------------------------|--------------------------|
G|----------------------------|--------------------------|
D|----------------------------|--------------------------|
A|----2--2--4--2--2--2--4--2--|--2--2--4--2--2--2--4--2--|
E|----0--0--0--0--0--0--0--0--|--0--0--0--0--0--0--0--0--|



      E
e|----------------------------|--------------------------|
B|----------------------------|--------------------------|
G|----------------------------|--------------------------|
D|----------------------------|--------------------------|
A|----2--2--4--2--2--2--4--2--|--2--2--4--2--0--------2--|
E|----0--0--0--0--0--0--0--0--|--0--0--0--0-----4--2--0--|



      E
e|------------------------------|--------------------------|
B|------------------------------|--------------------------|
G|------------------------------|--------------------------|
D|------------------------------|--------------------------|
A|----(2)--2--4--2--2--2--4--2--|--2--2--4--2--2--2--4--2--|
E|----(0)--0--0--0--0--0--0--0--|--0--0--0--0--0--0--0--0--|



      E
e|----------------------------|--------------------------|
B|----------------------------|--------------------------|
G|----------------------------|--------------------------|
D|----------------------------|--------------------------|
A|----2--2--4--2--2--2--4--2--|--2--2--4--2--0--------4--|
E|----0--0--0--0--0--0--0--0--|--0--0--0--0-----4--2-----|

  Chorus

      C#m                        C
e|----------------------------|--------------------------|
B|----------------------------|--------------------------|
G|----------------------------|--------------------------|
D|----------------------------|--------------------------|
A|----(4)---------------------|--3-----------------------|
E|----------------------------|--------------------------|



      E
e|----------------------------|--------------------------|
B|----------------------------|--------------------------|
G|----------------------------|--------------------------|
D|----------------------------|--------------------------|
A|----2-----------------------|--4--6--7----------2--3---|
E|----------------------------|--------------------------|



      C#m                        C
e|----------------------------|--------------------------|
B|----------------------------|--------------------------|
G|----------------------------|--------------------------|
D|----------------------------|--------------------------|
A|----4-----------------------|--3-----------------------|
E|----------------------------|--------------------------|



      E
e|----------------------------|--------------------------|
B|----------------------------|--------------------------|
G|----------------------------|--------------------------|
D|----------------------------|--------------------------|
A|----2-----------------------|--4--6--7----------2--3---|
E|----------------------------|--------------------------|



      C#m                        C
e|----------------------------|--------------------------|
B|----------------------------|--------------------------|
G|----------------------------|--------------------------|
D|----------------------------|--------------------------|
A|----4-----------------------|--4\3---------------------|
E|----------------------------|--------------------------|



      E                          F#
e|----------------------------|--------------------------|
B|----------------------------|--------------------------|
G|----------------------------|--------------------------|
D|----------------------------|--------------------------|
A|----3\2---------------------|--2\1---------------------|
E|----------------------------|--------------------------|



      A                          E
e|----------------------------|--------------------------|
B|----------------------------|--------------------------|
G|----------------------------|--------------------------|
D|----------------------------|--------------------------|
A|----1p0---------------------|--------------------------|
E|----------------------------|--5\4---------------------|



      E
e|----------------------------|--------------------------|
B|----------------------------|--------------------------|
G|----------------------------|--------------------------|
D|----------------------------|--------------------------|
A|----2--2--4--2--2--2--4--2--|--2--2--4--2--0--------2--|
E|----0--0--0--0--0--0--0--0--|--0--0--0--0-----4--2--0--|



      E
e|------------------------------|--------------------------|
B|------------------------------|--------------------------|
G|------------------------------|--------------------------|
D|------------------------------|--------------------------|
A|----(2)--2--4--2--2--2--4--2--|--2--2--4--2--0--------4--|
E|----(0)--0--0--0--0--0--0--0--|--0--0--0--0-----4--2-----|

  Chorus (after Verse 3)

      C#m                        C
e|----------------------------|--------------------------|
B|----------------------------|--------------------------|
G|----------------------------|--------------------------|
D|----------------------------|--------------------------|
A|----(4)---------------------|--3-----------------------|
E|----------------------------|--------------------------|



      E
e|----------------------------|--------------------------|
B|----------------------------|--------------------------|
G|----------------------------|--------------------------|
D|----------------------------|--------------------------|
A|----2-----------------------|--4--6--7----------2--3---|
E|----------------------------|--------------------------|



      C#m                        C
e|----------------------------|--------------------------|
B|----------------------------|--------------------------|
G|----------------------------|--------------------------|
D|----------------------------|--------------------------|
A|----4-----------------------|--3-----------------------|
E|----------------------------|--------------------------|



      E
e|----------------------------|--------------------------|
B|----------------------------|--------------------------|
G|----------------------------|--------------------------|
D|----------------------------|--------------------------|
A|----2-----------------------|--4--6--7----------2--3---|
E|----------------------------|--------------------------|



      C#m                        C
e|----------------------------|--------------------------|
B|----------------------------|--------------------------|
G|----------------------------|--------------------------|
D|----------------------------|--------------------------|
A|----4-----------------------|--4\3---------------------|
E|----------------------------|--------------------------|



      E                          F#
e|----------------------------|--------------------------|
B|----------------------------|--------------------------|
G|----------------------------|--------------------------|
D|----------------------------|--------------------------|
A|----3\2---------------------|--2\1---------------------|
E|----------------------------|--------------------------|



      A                          E
e|----------------------------|--------------------------|
B|----------------------------|--------------------------|
G|----------------------------|--------------------------|
D|----------------------------|--------------------------|
A|----1p0---------------------|--------------------------|
E|----------------------------|--5\4---------------------|



      F#
e|-----------------------------|--------------------------|
B|-----------------------------|--------------------------|
G|-----------------------------|--------------------------|
D|-----------------------------|--------------------------|
A|-----------------------------|--------------------------|
E|---4\2--2--2--2--2--2--2--2--|--2--2--2--2--2--2--2--2--|



     B7                            E
e|------------------------------|------------------------|
B|------------------------------|------------------------|
G|------------------------------|--9----9----9----9------|
D|------------------------------|--9----9----9----9------|
A|----2-------------------------|--7----7----7----7------|
E|------------------------------|------------------------|


              wide vib
      E      ~~~~~~~~~~~~~~
e|------------------------------|
B|----9-------------------------|
G|------9-------------------9\--|
D|--------9-----------------9\--|
A|----------7---------------7\--|
E|------------------------------|




Intro

| E        | E        | E        | E        |


Verse 1

E
Little darling gonna be a rock and roll star
E
Little darling gonna play electric guitar
C#m            C                   E
Little darling, Iíd like to get to know you
C#m                 C              E
Pleased to meet you, how do you do?


Chorus

C#m
Little darling
C
Little darling
E
Little darling
F#
Little darling
A
Little darling
E
Gonna love you tonight


Verse 2

E
Little darling gonna shake, shake, boogaloo
E
Little darling can I rattle my bones and dance with you?
C#m          C                E
And later on thereíll be some lovey doviní
C#m              C                 E
A little kissing, a little hugging, a little holding you


Chorus

C#m
Little darling
C
Little darling
E
Little darling
F#
Little darling
A
Little darling
E
Gonna love you tonight


Guitar solo (chords as for chorus omitting final two bars)

| C#m      | C        | E        | E        |

| C#m      | C        | E        | E        |

| C#m      | C        | E        | F#       |

| A        | E        | E        | E        |


Verse 3

E
Little darling whatís your mama mama gonna do?
E
Little darling when she finds out I stayed out all night with you?
C#m           C               E
Little darling Iím gonna miss kissing you
C#m           C               E
Little darling Iím gonna miss missing you


Chorus

C#m
Little darling
C
Little darling
E
Little darling
F#
Little darling
A
Little darling
E
Little darling
F#                F#
Little darling
B7
Gonna love you tonight
E                 E






/    slide up
\    slide down
h    hammer-on
p    pull-off
mu   mute
pb   pre-bend
co   cut off
pr   partial release
bss  bend slightly sharp
~~   vibrato


========================================================================  12 Feb 2011
Tap to rate this tab
 
# A B C D E F G H I J K L M N O P Q R S T U V W X Y Z