Song name
# A B C D E F G H I J K L M N O P Q R S T U V W X Y Z

Thin Lizzy - Dancing In The Moonlight tab

Song: Dancing in the Moonlight
Artist: Thin Lizzy
Album: Bad Reputation
Transcribed by: Máximo Mussini

------------------------|----------------------|------------------------|
--15b17----15b17r15p12--|-15b17----15b17r15p12-|-15b17---15---12--------|
------------------------|----------------------|--------------------12--|
------------------------|----------------------|-----------------14-----|
------------------------|----------------------|------------------------|
------------------------|----------------------|------------------------|
                                                                              
------------------------|----------------------|-----------------------------|
------------------------|----------------------|-----------------------------|
-12--14-12-14b16-r14p12-|-14b16----------------|--------12-----14-12-----12--|
------------------------|----------------------|-12-14-----14---------14-----|
------------------------|----------------------|-----------------------------|
------------------------|----------------------|-----------------------------|


--15----12----10----8\7-|-8----10----12--------|----------12-15p12----12--------|
------------------------|----------------------|-------12----------15----15-12--|
--12----9-----7-----5\4-|-5----7-----9---------|-14b16--------------------------|
------------------------|----------------------|--------------------------------|
------------------------|----------------------|--------------------------------|
------------------------|----------------------|--------------------------------|
             
							
----------12-15p12----12--------|         -------------------------------|
-------12----------15----15-12--|         -------------------------------|
-14b16--------------------------| x3      -14p12----14p12----14----------|
--------------------------------|         ------14-------14--------------|
--------------------------------|         ----------------------14p12s10-|
--------------------------------|         -------------------------------|
                                                                              

-----------------|----------------------------|-17b19--r17p15--17p15--|
-----------------|-15-12---15-12-15b17--15-12-|-----------------------|
-----12----14-12-|----------------------------|-----------------------|
-s14----14-------|----------------------------|-----------------------|
-----------------|----------------------------|-----------------------|
-----------------|----------------------------|-----------------------|
Tap to rate this tab
# A B C D E F G H I J K L M N O P Q R S T U V W X Y Z