Song name
# A B C D E F G H I J K L M N O P Q R S T U V W X Y Z

Thin Lizzy - Suicide tab

Suicide tab

Artist  Thin Lizzy
Title   Suicide
Album   Fighting


Intro (00.00 - 00.14)

|-----------------------------------------------|
|-----------------------------------------------|
|-----------------------------------------------|  Slight Pause Between Each Part
|-----------------------------------------------|
|----3-----------3-----------3-----------3------|
|-3h5-5h33h5--3h5-5h33h5--3h5-5h33h5--3h5-5h33h5|


Verse 1 (00.14 - 00.35)

|----------------------------------------------|
|----------------------------------------------|
|-5-55x55----5-----5-55x55----5----------------| Listen to song, repeat as necessary
|-5-55x55-5h7-77h5-5-55x55-5h7-77h5------------|
|-3-33x33----------3-33x33---------------------|
|----------------------------------------------|


Pre-Chorus (00.35 - 00.42)

|----------------------------------------------|
|----------------------------------------------|
|-55/10--77/12---------------------------------|
|-55/10--77/12---------------------------------|
|-33/8---55/10---------------------------------|
|----------------------------------------------|


Chorus (00.42 - 00.50)

|----------------------------------------------|
|----------------------------------------------|
|----5-----5-55x55----5-----5-55x55----5-------| Listen to song, repeat as necessary
|-5h7-77h5-5-55x55-5h7-77h5-5-55x55-5h7-77h5---|
|----------3-33x33----------3-33x33------------|
|----------------------------------------------|


Verse 2 (00.50 - 01.03)

|----------------------------------------------|
|----------------------------------------------|
|-5-55x55----5-----5-55x55----5----------------| Listen to song, repeat as necessary
|-5-55x55-5h7-77h5-5-55x55-5h7-77h5------------|
|-3-33x33----------3-33x33---------------------|
|----------------------------------------------|


Pre-Chorus (01.03 - 01.10)

|----------------------------------------------|
|----------------------------------------------|
|-55/10--77/12---------------------------------|
|-55/10--77/12---------------------------------|
|-33/8---55/10---------------------------------|
|----------------------------------------------|


Chorus (01.10 - 01.18)

|----------------------------------------------|
|----------------------------------------------|
|----5-----5-55x55----5-----5-55x55----5-------| Listen to song, repeat as necessary
|-5h7-77h5-5-55x55-5h7-77h5-5-55x55-5h7-77h5---|
|----------3-33x33----------3-33x33------------|
|----------------------------------------------|

Thats all for the moment. if anybody can help me 
figure out the bridge and solo's for the rest of
the song that would be great.

Anyway enjoy for now!

I am a RHYTHM GUITARIST.

Other Songs on the way: Got to give it up & Johnny the Fox meets Jimmy the Weed

Philip,
wrostle@yahoo.com
Tap to rate this tab
# A B C D E F G H I J K L M N O P Q R S T U V W X Y Z