Song name
# A B C D E F G H I J K L M N O P Q R S T U V W X Y Z

Thin Lizzy - Rocker tab

This is the single version so i haven't got the solo in it, but as soon as i get the 
version i will have the solo up.


|----|-------------------|-----------------------------|
|----|-14---14--14-14----|-15-15--15-15-14h-15--15-15--|
|-7-/|-14---14--14-14-14-|-14-14--14-14-14-(14)-14-14--|
|-7-/|-14---14--14-14-12-|-12-12--12-12-12-(12)-12-12--|
|----|-------------------|-----------------------------|
|----|-------------------|-----------------------------|

|-------------------|-----------------------------|
|-14---14--14-14----|-15-15--15-15-14h-15--15-15--|
|-14---14--14-14-14-|-14-14--14-14-14-(14)-14-14--|
|-14---14--14-14-12-|-12-12--12-12-12-(12)-12-12--|
|-------------------|-----------------------------|
|-------------------|-----------------------------|

||--------------------------|
||o----7--------------------|
||--6--7-5-6----5-----------|x8
||--7--------7--5---5--5-5--|
||o-7-----------7---5--5-5--|
||--5---------------3--3-3--|


|---------------------|
|---------------------|
|---------------------|x5
|-5--5-5-/-7----------|
|-5--5-5-/-7----------|
|-3--3-3-/-5----------|


||--------------------------|
||o----7--------------------|
||--6--7-5-6----5-----------|x4
||--7--------7--5---5--5-5--|
||o-7-----------7---5--5-5--|
||--5---------------3--3-3--|

|---------------------|
|---------------------|
|---------------------|x8
|-5--5-5-/-7----------|
|-5--5-5-/-7----------|
|-3--3-3-/-5----------|

||--------------------------|
||o----7--------------------|
||--6--7-5-6----5-----------|x4
||--7--------7--5---5--5-5--|
||o-7-----------7---5--5-5--|
||--5---------------3--3-3--|


Break:

E--------------------------------------------------|
B-----------------5-5-5-5--5-5--------x-----------x|
G-----------------5-5-5-5--5-5--------x-----------x|
D-----------------5-5-5-5--5-5----7\--x-----------x|
A-----------------3-3-3-3--3-3----7\--x-----------x|
E---------------------------------5\----3----5-----|
       Ill-be your........rock n roll


E---------------------------------------x-|
B----5-5-5-5-5-5-5-5----------2---------x-|
G----5-5-5-5-5-5-5-5----------2---------x-|
D----5-5-5-5-5-5-5-5----------2---------x-|
A----3-3-3-3-3-3-3-3--5---3---0---------x-|
E----------------------------------3--5-x-|

E-------------------------------------|
B----5-5-5-5--5-5--------x-----------x|
G----5-5-5-5--5-5--------x-----------x|
D----5-5-5-5--5-5----7\--x-----------x|
A----3-3-3-3--3-3----7\--x-----------x|
E--------------------5\----3----5-----|

E----------------------------------------------|
B----5-5-5-5-5-5-5-5-------------5-x-6-x-7-x-8-|
G----5-5-5-5-5-5-5-5-------------5-x-6-x-7-x-8-|
D----5-5-5-5-5-5-5-5-------------5-x-6-x-7-x-8-|
A----3-3-3-3-3-3-3-3--5---3---0--3-x-4-x-5-x-6-|
E----------------------------------------------|


flange part

E----5--5-5--5-5--5-5-----x-------------3-|
B----5--5-5--5-5--5-5-----x-------------3-|
G----6--7-7--6-6--7-7-----x---5---------4-|x4
D----7--7-7--7-7--7-7-----x---7---x-x---5-|
A----7-------7-7----------x---7---x-x---5-|
E---------------------------------x-x---3-|

Without flange

||--------------------------|
||o----7--------------------|
||--6--7-5-6----5-----------|x1
||--7--------7--5---5--5-5--|
||o-7-----------7---5--5-5--|
||--5---------------3--3-3--|

Break:

E--------------------------------------------------|
B-----------------5-5-5-5--5-5--------x-----------x|
G-----------------5-5-5-5--5-5--------x-----------x|
D-----------------5-5-5-5--5-5----7\--x-----------x|
A-----------------3-3-3-3--3-3----7\--x-----------x|
E---------------------------------5\----3----5-----|
       I'll be your........rock n roll


E---------------------------------------x-|
B----5-5-5-5-5-5-5-5----------2---------x-|
G----5-5-5-5-5-5-5-5----------2---------x-|
D----5-5-5-5-5-5-5-5----------2---------x-|
A----3-3-3-3-3-3-3-3--5---3---0---------x-|
E----------------------------------3--5-x-|

E--------------------------------------------------|
B-----------------5-5-5-5--5-5--------x-----------x|
G-----------------5-5-5-5--5-5--------x-----------x|
D-----------------5-5-5-5--5-5----7\--x-----------x|
A-----------------3-3-3-3--3-3----7\--x-----------x|
E---------------------------------5\----3----5-----|

E----------------------------------------------|
B----5-5-5-5-5-5-5-5-------------5-x-6-x-7-x-8-|
G----5-5-5-5-5-5-5-5-------------5-x-6-x-7-x-8-|
D----5-5-5-5-5-5-5-5-------------5-x-6-x-7-x-8-|
A----3-3-3-3-3-3-3-3--5---3---0--3-x-4-x-5-x-6-|
E----------------------------------------------|

Ending chyord with flange

|-5--------|
|-5--------|
|-6--------|
|-7--------|
|-5--------|
|-5--------|
Tap to rate this tab
# A B C D E F G H I J K L M N O P Q R S T U V W X Y Z