Song name
# A B C D E F G H I J K L M N O P Q R S T U V W X Y Z

Thin Lizzy - Thunder And Lightning tab

Intro:
e-----------------------------------------------------------|
B-----------------------------------------------------------|
G-----------------------------------------------------------|
D-----------------------------------------------------------|
A-2-4-5-4-2-----2-4-5-4-2-----2-4-5-4-2-0-4-2-0---2-0-------|
E-----------0-0-----------0-0-------------------3-----3-0-0-|

Verse:
e----------|
B----------|
G-7---9----|
D-7---9----|
A-5---7----|
E----------|

Chorus:
e--------------------------|
B--------------------------|
G------9-9-----------------|
D-9----9-9-9---12-11-9-7-9-|
A-9----7-7-9---12-11-9-7-9-|
E-7--------7---10-9--7-5-7-|

Lead into first solo:
e---------|
B---------|
G-4-6-7-9-|
D-4-6-7-9-|
A-2-4-5-7-|
E---------|

Rhythm under solo 1:
e----------------------|
B----------------------|
G----------------------|
D--5-7---5-7---5-5-5-7-|
A--5-7---5-7---5-5-5-7-|
E--3-5---3-5---3-3-3-5-|x3
then
e------------------------------------------------|
B------------------------------------------------|
G------------------------------------------------|
D-5-7---5-7---5-5-5-5-5-5-5-5-5-6-7-8-9-10-11-12-|
A-5-7---5-7---5-5-5-5-5-5-5-5-5-6-7-8-9-10-11-12-|
E-3-5---3-5---3-3-3-3-3-3-3-3-3-4-5-6-7-8--9--10-|

Lead into keyboard solo is the same as lead into solo 1.

Rhythm under keyboard solo:
e----------------------|
B----------------------|
G----------------------|
D--5-7---5-7---5-5-5-7-|
A--5-7---5-7---5-5-5-7-|
E--3-5---3-5---3-3-3-5-|x3
then
e-----------------------------|
B-----------------------------|
G-----------------------------|
D-5-7---5-7---5-5-5-5-5-5-5-5-|
A-5-7---5-7---5-5-5-5-5-5-5-5-|
E-3-5---3-5---3-3-3-3-3-3-3-3-|
then
e--------------------|
B--------------------|
G--------------------|
D-5-6-7-8-9-10-11-12-|
A-5-6-7-8-9-10-11-12-|
E-3-4-5-6-7-8--9--10-|x3
then
e----
B----
G----
D-12-
A-12-
E-10-x7

Lead into last solo(this is acually played on keyboard but i tabbed it anyway):
e-----------------------------|
B-----------------------------|
G-----------------------------|
D-----------------------------|
A-2-4-5-4-2-0-4-2-0---2-0-----|
E-------------------3-----3-0-|

Rhythm under last solo is the same as the verses.
Lead into last verse is the same as lead into solo 1.
Last verse is the same as rhythm under solo 1.
Outro is the same as intro.
Tap to rate this tab
# A B C D E F G H I J K L M N O P Q R S T U V W X Y Z