Song name
# A B C D E F G H I J K L M N O P Q R S T U V W X Y Z

Thin Lizzy - Someday Shes Going To Hit Back tab

Intro:
Eb5 Bb5 Ab5 Bb5 C5
Eb5 Bb5 Ab5 Bb5 G5
G5 G5 Bb5
G5 G5 Bb5

Verse:
Eb5 Bb5 Ab5 Bb5 C5
while the C5 chord is played:
e---------|
B---------|
G---------|
D---------|
A---------|
E-8h10h11-

Chorus:
e--------------------------|
B--------------------------|
G-10-8-12-10-14-8-10-8-6-4-|
D-10-8-12-10-14-8-10-8-6-4-|
A-8--6-10-8--12-6-8--6-4-2-|
E--------------------------|

Bridge:
e-13-11-15-13----13-11-13-|
B-------------15----------|
G-------------------------|
D-------------------------|
A-------------------------|
E-------------------------|

Outro:
e---------------|
B---------------|
G-10-8-12-10-13-|
D-10-8-12-10-13-|
A-8--6-10-8--11-|
E---------------|
Tap to rate this tab
 
# A B C D E F G H I J K L M N O P Q R S T U V W X Y Z