Song name
# A B C D E F G H I J K L M N O P Q R S T U V W X Y Z

Thin Lizzy - Killer On The Loose tab

Intro starts off wit the bass riff for a bar then guitar comes in wit one strum of an A5 
chord per bar.

Guitar intro
e------------------------------------------------------------|
b------------------------------------------------------------|
g------------------------------------------------------------|
d------------------------------------------------------------|
a-5-----------------------5----------------------5-----------|
E-7-----------------------7----------------------7-----------|

Riff 1 x 4 with (End of riff 1) at the last bar
e---------------|
b---------------|
g-------9---7---|
d-------9---7---|
a-9-------------|
E-7-------------|

End of Riff 1
e----------------------------------|
b----------------------------------|
g----------------------------------|
d--------4-4-6-6-7-7-6-6-----------|
a--7-----2-2-4-4-5-5-4-4-----------|
E--9-------------------------------|

Riff 2 x 8
e---------------------|
b---------------------|
g---------7---6-------|
d--9------7---6---7---|
a--7--------------7---|
E---------------------|

Riff 1 x 4 With end

Riff 2 x 12

Riff 1 x 4 With end

Riff 2 x 4 Last Bar end with
e---------------------|
b---------------------|
g---------7---6-------|
d--7------7---6-------|
a--9------------------|
E---------------------|

Intro Bass only for first bar then guitar comes in wit guitar intro at the start ^^^

Then comes the first solo. Bass is the only rhythm
e------------------------------------------------------------|
b------------------------------------------------------------|
g--2-(PLUS FEEDBACK HOLDING THIS NOTE THEN PICK SCRAPE)------|
d------------------------------------------------------------|
a------------------------------------------------------------|
E------------------------------------------------------------|

e-------------------------------------------------------------|
b-------------------------------------------------------------|
g--5--7b(8)---7-7p5-7-7-5~~--------7b(8)(7)(8)----7p5-----5---|
d------------------------------5h7--------------------7-5---7-|
a-------------------------------------------------------------|
E-------------------------------------------------------------|

e-----------------------8p5---5---------------|
b------8---8b(10)----8p5-----8---8-5--8b(10)--|
g--7/9---9------------------------------------|
d---------------------------------------------|
a---------------------------------------------|
E---------------------------------------------|

e---------------------------------------------------|
b--8p5---5----------------------12--15b(17)-15b(17)-|
g------7b--7p5-7b(9)-----/14~~~---------------------|
d---------------------------------------------------|
a---------------------------------------------------|
E---------------------------------------------------|
*It gets weird here! you will have to use the pic to tap onto the 19th fret and slide to 
22nd fret with the pic (or plectrum watever u wanna call it!) Repeat this quickly 6 times.
e--------------------------------------------------------|
b--15-15p13----15-13-15----13/--*19/22-------------------|(with tappin wit pic x 6)
g-----------14----------14-------------------------------|
d--------------------------------------------------------|
a--------------------------------------------------------|
E--------------------------------------------------------|
                     Weird bit! ^^^^^^^
End of solo
e----------------------------|
b----------------------------|
g--------------2-------------|~~~THIS NOT GETS HIGHER PITCHED USING EFFECTS! don't have
d--7p5---7-------------------|        any effects at my disposal so i cant tell you how to
a------7-7-------------------|          do it! sorry! you can still slide up the fretboard
E----------------------------|            but thats not wats happening here!

Second Solo Rhythm plays Fiff 1 x4 with end
e------------------------------------------------------|
b--10----10p7---10p7---10p7---10p7---10p7---10p7---10--|
g--12(14)-----9------9------9------9------9------9-----|
d------------------------------------------------------|
a------------------------------------------------------|
E------------------------------------------------------|
Gets Fast here!
e--7--9--10p9p7---7-----------------------------------------------------|
b---------------10-10p7--7----------------------------------------------|
g-----------------------9--9p7---7h9p7---7------------------------------|
d------------------------------9-------9---9-8-7---7--------------------|
a------------------------------------------------8---9-8-7----7---------|
E----------------------------------------------------------10---10--7~~-|
Last Five notes here are harmonized
e--------------------------------------7---------7~7~-5~-7~----|
b-------------------------------------10b(12)-10---------------|
g---------------------7---7h9h7---7----------------------------|
d-----------7---7h8h9---9-------9---9--------------------------|
a-----7h8h9---9------------------------------------------------|
E--10----------------------------------------------------------|

Then Riff 2 x 12 times before fading out!

p = pull off
h = hammer on
/ = slide
~ = vibrato
Tap to rate this tab
# A B C D E F G H I J K L M N O P Q R S T U V W X Y Z