Song name
# A B C D E F G H I J K L M N O P Q R S T U V W X Y Z

Thin Lizzy - Randolphs Tango tab

-------------------------------------------------------------------------------
			Randolphs Tango-Thin Lizzy
-------------------------------------------------------------------------------
Tabbed by:Jim Myers
Email:jemyers1975@yahoo.com

Tuning:EADGBE
                       Play throughout song
e|---------------------------------------------------------------------------|
B|---------------------2-----------------------------------------------------|
G|-------1-2-1-----1---2----------1--2--1-----1----1-------------------------|
D|----2---------2------1-------2-----------2-------2-------------------------|
A|-2-------------------2---2-----------------------2-------------------------|
E|-------------------------------------------------0-------------------------|
Tap to rate this tab
# A B C D E F G H I J K L M N O P Q R S T U V W X Y Z