Song name
# A B C D E F G H I J K L M N O P Q R S T U V W X Y Z

Thin Lizzy - Downtown Sundown tab

------------------------------------------------------|
-------------------------Downtown Sundown-Thin Lizzy--|
Tabbed by:Jim Myers
Email:jemyers1975@yahoo.com

Tuning:EADGBE    Key of F

   F     DM      Bb     GM      Am      C

e|-1-----1--------------3------0--0-------------------------------------------|
B|-1-----3-------3------3------1--1------1------------------------------------|
G|-2-----2-------3------3------2--2------2------------------------------------|Intro
D|-3-----0-------3------5------2--2------0------------------------------------|
A|-3-------------1-------------0--0------3------------------------------------|
E|-1--------------------------------------------------------------------------|

e|-----------------1---3---5--------------------1---3---5--------------------|
B|----------1--3------------------------1---3---------------6----------------|
G|-0--2-----------------------0--2---------------------------7---------------|
D|---------------------------------------------------------------------------|Solo
A|---------------------------------------------------------------------------|
E|---------------------------------------------------------------------------|

e|-----------------1---3---5------------------1---3---5-------10-------------|
B|---------1---3-----------------------1---3--------------6------------------|
G|-0---2-----------------------0---2-----------------------------------------|Thats all I have for the
D|---------------------------------------------------------------------------|Solo for now
A|---------------------------------------------------------------------------|
E|---------------------------------------------------------------------------|


F                 DM
If you want your freedom
F                 DM
There is nothing planned
F                  DM
If you really need him
F          DM
I will understand
F                  DM
Please believe in love
F                    DM
I believe there is a God above
Bb
For love
          F        DM        F    DM
And He's coming, yes He's coming
F              DM
If you want to fly
F          DM
Then fly away
F               DM
All the cloudy skies
F             DM
Belong to yesterday

F                  DM
Please believe in love
F                    DM
I believe there is a God above
Bb
For love
           F     Dm         F      DM
And He's coming, yes He's coming

Intro
Solo


In the shadows the swallow dies
No one knows the hobo hides
There is no need to apologize
This is the story of a downtown sundown

If you climb the mountain
You will see
There is no great distance
Between the Lord and me

Please believe in love
I believe there is a God above
For love
And He's coming, yes He's coming

In the shadows a swallow dies
No one knows the hobo hides
There is no need to apologize
This is the story of a downtown sundown


Intro 2X



| /  slide up
| \  slide down
| h  hammer-on
| p  pull-off
| ~  vibrato
| +  harmonic
| x  Mute note
===============================================================================
Tap to rate this tab
# A B C D E F G H I J K L M N O P Q R S T U V W X Y Z