Song name
# A B C D E F G H I J K L M N O P Q R S T U V W X Y Z

Thin Lizzy - Look What The Wind Blew In tab

-------------------------------------------------------------------------------
			   Look What the wind blew in-Thin Lizzy
-------------------------------------------------------------------------------
Tabbed by:Jim Myers
Email:jemyers1975@yahoo.com

Tuning:EADGBE
                   A                    E   Intro
e|--------------------------------------------------------------------------|
B|--------------5-5-5-5-----------------9-----------------------------------|
G|--------------6-6-6-6-----------------9-----------------------------------|
D|--------------7-7-7-7--7-7--6---------9-----------------------------------|
A|-----6---9----7-7-7-7----------7------7-----------------------------------|
E|-7--------------------------------7---------------------------------------|
    E     A      B      Chords in Verse and Chorus
e|--------------------------------------------------------------------------|
B|--9------5-----7----------------------------------------------------------|
G|--9------6-----8----------------------------------------------------------|
D|--9------7-----9----------------------------------------------------------|
A|--7------7-----9----------------------------------------------------------|
E|--------------------------------------------------------------------------|
       Riff A      B              Riff B
e|---------------------------------------------------------------------------|
B|--10--9--7-------7------------10P-9-P--7--6x-----10B-----------------------|
G|-------------9---8---------------------------------------------------------|
D|-----------------9---------------------------------------------------------|
A|-----------------9---------------------------------------------------------|
E|---------------------------------------------------------------------------|


Intro 2X           Listen to song for the rythem


E
In the dismal darkness
A
I have sat and gazed, amazed
B
At the blazing factories  Riff A  Then strum B chord

E
Like the lonely man
A
Who stands on the seashore
B
And I am afraid     Riff A Then Strum B chord


E
As weary as I am
A
I try
B
I seem to see that things look ok  Riff A Then Strum B chord
E     A           B
Run, run in your skin
Riff A
Look what the wind just blew in

Intro 2X

E
Many lovely ladies
A
I have felt, touched
B
And I was not afraid    Riff A then strum B chord

E
I took them out dancing
A
Out romancing
B
And I was not afriad     Riff A then strum B chord


E
Then somewhere from the north
A
This gale I knew just flew in
A
And I am afraid          Riff A then strum B chord


E     A           B
Run, run in your skin
Riff B
Look what the wind just blew in

E     A            B
Run, run in your skin
Riff B
Look what the wind just blew in
E     A                     B
Run, you got to run in your skin
Riff B
Look what the wind just blew in

Look what the wind just blew in
You got to look what the wind just blew in
You got to look what the wind just blew in




| /  slide up
| \  slide down
| h  hammer-on
| p  pull-off
| ~  vibrato
| +  harmonic
| x  Mute note
===============================================================================
Tap to rate this tab
# A B C D E F G H I J K L M N O P Q R S T U V W X Y Z