Song name
# A B C D E F G H I J K L M N O P Q R S T U V W X Y Z

Thingy - Ballpoint Pen tab

thingy - ballpoint pen
tabbed by Modern Rocko on 8/28/05

this is a pretty straightforward song, very easy to play and sing at the same time.  
better if a second person sings the second vocal part.  lyrics included at the bottom.

e|----------------------------|repeat 12x
B|----------------------------|
G|------2-----0-----0-----0---|
D|-----2-----2-----2-----2----|
A|----0-----0-----3-----------|
E|----------------------3-----|
Rob:      who's gonna...
Elea: write this...

e|--------------------------------|repeat 4x
B|--------------------------------|
G|--------------------------------|
D|----1-2-1----1-2----2---4-4-4-2-|
A|-----2------2---4---------------|
E|--------------------------------|
Rob:  gone .. into  ....  birdies..


e|-------------------------|repeat 4x
B|-------------------------|
G|-------------------------|
D|--------2-1--2-----2-1-2-|
A|-----2-2----2-0---0---0--|
E|-------------------------|
Rob:   with a...


e|----------------------------|repeat 18x to end
B|----------------------------|
G|------2-----0-----0-----0---|
D|-----2-----2-----2-----2----|
A|----0-----0-----3-----------|
E|----------------------3-----|
          who's gonna...
Tap to rate this tab
# A B C D E F G H I J K L M N O P Q R S T U V W X Y Z