Song name
# A B C D E F G H I J K L M N O P Q R S T U V W X Y Z

Think Harder - Stubborn tab

|#----------------------------------PLEASE NOTE---------------------------------#
#This file is the author's own work. You may only use this file for private study, 
scholarship, or research. #
#------------------------------------------------------------------------------#




Gtr I (D A D G B E) - 'Stubborn - Think Harder'

 4/4
  Gtr I
  Q  Q  Q  Q   Q E H.       Q  Q  Q  Q   Q E H.       Q
|------------|------------|------------|----------|------|
|------------|------------|------------|----------|------|
|------------|------------|------------|----------|------|
|------------|------------|------------|----------|------|
|------------|-3-5-5------|------------|-3-5-5----|------|
|------------|------------|------------|----------|------|


  S E S E S E S S S E E   S E S E S E S S S E E   S E S E S E S S S E E
|-----------------------|-----------------------|-----------------------|
|-----------------------|-----------------------|-----------------------|
|-----------------------|-----------------------|-----------------------|
|-0-3-0-3-0-3-0-3-0-3-0-|---------------------3-|-0-3-0-3-0-3-0-3-0-3-0-|
|-0-3-0-3-0-3-0-3-0-3-0-|-3-5-3-5-3-5-3-5-3-5---|-0-3-0-3-0-3-0-3-0-3-0-|
|-0-3-0-3-0-3-0-3-0-3-0-|-----------------------|-0-3-0-3-0-3-0-3-0-3-0-|


  S E S E S E S S S E E   S E S E S E S S S E E   S E S E S E S S S E E
|-----------------------|-----------------------|-----------------------|
|-----------------------|-----------------------|-----------------------|
|-----------------------|-----------------------|-----------------------|
|---------------------3-|-0-3-0-3-0-3-0-3-0-3-0-|---------------------3-|
|-3-5-3-5-3-5-3-5-3-5---|-0-3-0-3-0-3-0-3-0-3-0-|-3-5-3-5-3-5-3-5-3-5---|
|-----------------------|-0-3-0-3-0-3-0-3-0-3-0-|-----------------------|


                                              PM------------------|
  S E S E S E S S S E E   S E S E S H.        E E E E E E E E   E E
|-----------------------|-------------------|-----------------|-----|
|-----------------------|-------------------|-----------------|-----|
|-----------------------|-------------------|-----------------|-----|
|-0-3-0-3-0-3-0-3-0-3-0-|-------------------|-0-3-3-0-3-3-0-3-|-----|
|-0-3-0-3-0-3-0-3-0-3-0-|-3-5-3-5-3-5-------|-0-3-3-0-3-3-0-3-|-3-5-|
|-0-3-0-3-0-3-0-3-0-3-0-|-------------------|-0-3-3-0-3-3-0-3-|-----|


  PM------|     PM----------------------------|     PM--------|   PM--|
  E E E E E E   E E E E E E E E   E E E E E E E E   E E E E E E E E   E
|-------------|-----------------|-----------------|-----------------|---|
|-------------|-----------------|-----------------|-----------------|---|
|-------------|-----------------|-----------------|-----------------|---|
|-----------3-|-0-3-3-0-3-3-0-3-|---------------3-|-0-3-3-0-3-3-0-3-|---|
|-5-3-5-5-3---|-0-3-3-0-3-3-0-3-|-3-5-5-3-5-5-3---|-0-3-3-0-3-3-0-3-|-3-|
|-------------|-0-3-3-0-3-3-0-3-|-----------------|-0-3-3-0-3-3-0-3-|---|


  PM--------|     PM------------|
  E E E E E E E   E E E E E E E E   S E S E S h   E E E H E E E Q E E E
|---------------|-----------------|-------------|-----------------------|
|---------------|-----------------|-------------|-----------------------|
|---------------|-----------------|-------------|-----------------------|
|-------------3-|-0-3-3-0-3-3-0-3-|-------------|-0-0---6-0-0---3-5-3-5-|
|-5-5-3-5-5-3---|-0-3-3-0-3-3-0-3-|-3-5-3-5-3-5-|-0-0---6-0-0---3-5-3-5-|
|---------------|-0-3-3-0-3-3-0-3-|-------------|-0-0---6S0-0---3-5-3-5-|


  E E E H    E E E E E E E   E E E H    E E E Q  E E E   E E E H
|--------------------------|---------------------------|----------|
|--------------------------|---------------------------|----------|
|--------------------------|---------------------------|----------|
|-0-0---6----0-0---3-5-3-5-|-0-0---6S===0-0---3--5-3-5-|-0-0---6--|
|-0-0---6----0-0---3-5-3-5-|-0-0---6----0-0---3--5-3-5-|-0-0---6--|
|-0-0---6S===0-0---3-5-3-5-|-0-0---6----0-0---3--5-3-5-|-0-0---6S=|


  E E E Q E E E   W
|---------------|---------||-----|
|---------------|---------||o----|
|---------------|---------||-----|
|-0-0---3-5-3-5-|-0-------||-----|
|-0-0---3-5-3-5-|-0-------||o----|
|-0-0---3-5-3-5-|-0-------||-----|


  E E E E E E E E  E E E E E E E E   E  E  E  E E E E  E  E E E E E E E E
|-------------------------------------------------------------------------|
|-------------------------------------------------------------------------|
|-------------------------------------------------------------------------|
|-2-2-2-2-------2--0-0-0-0-------0--10-10-10-10-------10--0-0-0-0-------0-|
|-2-2-2-2-------2--0-0-0-0-------0--10-10-10-10-------10--0-0-0-0-------0-|
|-2-2-2-2-------2--0-0-0-0-------0--10-10-10-10-------10--0-0-0-0-------0-|


  E E E E E E E E  E E E E E E E E   E  E  E  E E E E  E E E E E E E E E
|-------------------------------------------------------------------------||-|
|------------------------------------------------------------------------o||-|
|-------------------------------------------------------------------------||-|
|-2-2-2-2-------2--0-0-0-0-------0--10-10-10-10-------10-0-0-0-0-------0--||-|
|-2-2-2-2-------2--0-0-0-0-------0--10-10-10-10-------10-0-0-0-0-------0-o||-|
|-2-2-2-2-------2--0-0-0-0-------0--10-10-10-10-------10-0-0-0-0-------0--||-|


     H.            E  E  H.            E  E  H.                 E  E  E  E  E  E  Q        8x
||--15------------17-15-14------------12-10-12-----------------12-12-10-12-12-10-14--------||
||o---------------------------------------------------------------------------------------o||
||-----------------------------------------------------------------------------------------||
||-----------------------------------------------------------------------------------------||
||o---------------------------------------------------------------------------------------o||
||-----------------------------------------------------------------------------------------||
|
|    E  E E E E E  E  E  E  E E E E E  E  E  E   E  E  E E E E  E  E  E  E  E     E E E E  8x
||-----------------------------------------------------------------------------------------||
||o---------------------------------------------------------------------------------------o||
||-----------------------------------------------------------------------------------------||
||---2--2-2-2---------2--0--0-0-0---------0-10--10-10-10-------10--0--0--0--0-----------0--||
||o--2--2-2-2---------2--0--0-0-0---------0-10--10-10-10-------10--0--0--0--0-----------0-o||
||---2--2-2-2---------2--0--0-0-0---------0-10--10-10-10-------10--0--0--0--0-----------0--||


|-|
|-|
|-|
|-|
|-|
|-|
|
|-|
|-|
|-|
|-|
|-|
|-|


Duration Legend
---------------
W - whole; H - half; Q - quarter; E - 8th; S - 16th; T - 32nd; X - 64th; a - acciaccatura
+ - note tied to previous; . - note dotted; .. - note double dotted
Uncapitalized letters represent notes that are staccato (1/2 duration)
Irregular groupings are notated above the duration line
Duration letters will always appear directly above the note/fret number it represents the
duration for.  Duration letters with no fret number below them represent rests.  Multi-
bar rests are notated in the form Wxn, where n is the number of bars to rest for.  Low
melody durations appear below the staff

Tablature Legend
----------------
 h   - hammer-on
 p   - pull-off
 b   - bend
 pb  - pre-bend
 r   - bend release (if no number after the r, then release immediately)
 /\  - slide into or out of (from/to "nowhere")
 s   - legato slide
 S   - shift slide
 - natural harmonic
[n]  - artificial harmonic
n(n) - tapped harmonic
 ~   - vibrato
 tr  - trill
 T   - tap
 TP  - trem. picking
 PM  - palm muting
\n/  - tremolo bar dip; n = amount to dip
 \n  - tremolo bar down
 n/  - tremolo bar up
/n\  - tremolo bar inverted dip
 =   - hold bend; also acts as connecting device for hammers/pulls
 <> - volume swell (louder/softer)
 x   - on rhythm slash represents muted slash
 o   - on rhythm slash represents single note slash

Misc Legend
-----------
 |  - bar
||  - double bar
||o - repeat start
o|| - repeat end
*|  - double bar (ending)
 :  - bar (freetime)
 $  - Segno
 &  - Coda
Tempo markers -  = BPM(8/16=s8/s16), where s8 = swing 8ths, s16 = swing 16ths

** Generated using Power Tab Editor by Brad Larsen: The Official Power Tab Web Site
|-2-2-2-2-------2--0-0-0-0-------0--10-10-10-10-------10-0-0-0-0-------0--||-|


     H.            E  E  H.            E  E  H.                 E  E  E  E  E  E  Q        8x
||--15------------17-15-14------------12-10-12-----------------12-12-10-12-12-10-14--------||
||o---------------------------------------------------------------------------------------o||
||-----------------------------------------------------------------------------------------||
||-----------------------------------------------------------------------------------------||
||o---------------------------------------------------------------------------------------o||
||-----------------------------------------------------------------------------------------||
|
|    E  E E E E E  E  E  E  E E E E E  E  E  E   E  E  E E E E  E  E  E  E  E     E E E E  8x
||-----------------------------------------------------------------------------------------||
||o---------------------------------------------------------------------------------------o||
||-----------------------------------------------------------------------------------------||
||---2--2-2-2---------2--0--0-0-0---------0-10--10-10-10-------10--0--0--0--0-----------0--||
||o--2--2-2-2---------2--0--0-0-0---------0-10--10-10-10-------10--0--0--0--0-----------0-o||
||---2--2-2-2---------2--0--0-0-0---------0-10--10-10-10-------10--0--0--0--0-----------0--||


|-|
|-|
|-|
|-|
|-|
|-|
|
|-|
|-|
|-|
|-|
|-|
|-|


Duration Legend
---------------
W - whole; H - half; Q - quarter; E - 8th; S - 16th; T - 32nd; X - 64th; a - acciaccatura
+ - note tied to previous; . - note dotted; .. - note double dotted
Uncapitalized letters represent notes that are staccato (1/2 duration)
Irregular groupings are notated above the duration line
Duration letters will always appear directly above the note/fret number it represents the
duration for.  Duration letters with no fret number below them represent rests.  Multi-
bar rests are notated in the form Wxn, where n is the number of bars to rest for.  Low
melody durations appear below the staff

Tablature Legend
----------------
 h   - hammer-on
 p   - pull-off
 b   - bend
 pb  - pre-bend
 r   - bend release (if no number after the r, then release immediately)
 /\  - slide into or out of (from/to "nowhere")
 s   - legato slide
 S   - shift slide
  - natural harmonic
[n]  - artificial harmonic
n(n) - tapped harmonic
 ~   - vibrato
 tr  - trill
 T   - tap
 TP  - trem. picking
 PM  - palm muting
\n/  - tremolo bar dip; n = amount to dip
 \n  - tremolo bar down
 n/  - tremolo bar up
/n\  - tremolo bar inverted dip
 =   - hold bend; also acts as connecting device for hammers/pulls
 <>  - volume swell (louder/softer)
 x   - on rhythm slash represents muted slash
 o   - on rhythm slash represents single note slash

Misc Legend
-----------
 |  - bar
||  - double bar
||o - repeat start
o|| - repeat end
*|  - double bar (ending)
 :  - bar (freetime)
 $  - Segno
 &  - Coda
Tempo markers -  = BPM(8/16=s8/s16), where s8 = swing 8ths, s16 = swing 16ths


***************************************************************************************
* Generated using Power Tab Editor by Brad Larsen - http://powertab.guitarnetwork.org *
***************************************************************************************
Tap to rate this tab
# A B C D E F G H I J K L M N O P Q R S T U V W X Y Z