Song name
# A B C D E F G H I J K L M N O P Q R S T U V W X Y Z

Think Harder - Nicole tab

#----------------------------------PLEASE NOTE---------------------------------#
#This file is the author's own work and represents their interpretation of the #
#song. You may only use this file for private study, scholarship, or research. #
#------------------------------------------------------------------------------#









Gtr I (E A D G B E) - 'Nicole'

 4/4
    Gtr I 
Intro
|--------------------------------------------------------------|
|--------------------------------------------------------------|
|-6-6-6-6-6------------------6-6-6-6-6-------------------------|
|-6-6-6-6-6----4-4-4-4-4-----6-6-6-6-6-------6-6-6-6-4-4-4-4---|
|-4-4-4-4-4----4-4-4-4-4---2S4-4-4-4-4-------6-6-6-6-4-4-4-4---|
|------------4S2-2-2-2-2-----------------16S=4-4-4-4-2-2-2-2---|

Verse
|--------------------------------------------------------|
|--------------------------------------------------------|
|-6-6-6-6-6---------------6-6-6-6-6----------------------|
|-6-6-6-6-6---4-4-4-4-4---6-6-6-6-6---6-6-6-6-4-4-4-4----|
|-4-4-4-4-4---4-4-4-4-4---4-4-4-4-4---6-6-6-6-4-4-4-4----|
|-------------2-2-2-2-2---------------4-4-4-4-2-2-2-2----|

                                      Chorus
Pre-chorus                PM----------------------------|
|----------------------||-------------------------------------|
|-6-6--4-4-------------||o------------------------------------|
|-6-6--4-4----------6--||-------------------------------------|
|-------------4--------||-------------------------------------|
|----------------------||o-4-4-4-4-4-4-4-4-3-3-3-3-3-3-3-3----|
|----------------------||-------------------------------------|
|
|                          PM----------------------------|
|----------------------||-------------------------------------|
|----------------------||o------------------------------------|
|-6-6----4-4----6------||--6-6-6-6-6-6-6-6--------------------|
|-6-6----4-4--4-6-6-7--||--6-6-6-6-6-6-6-6-6-6-6-6-6-6-6-6----|
|-4-4----2-2--4-4-6-7--||o-4-4-4-4-4-4-4-4-6-6-6-6-6-6-6-6----|
|-------------2---4-5--||------------------4-4-4-4-4-4-4-4----|


  PM----------------------------|       Chorus Pt. 2
|----------------------------------||-----------------------------------|
|---------------------------------o||-----------------------------------|
|----------------------------------||-----------------------------------|
|----------------------------------||-----------------------------------|
|-2-2-2-2-2-4-2-2-1-1-1-1-1-1-1-1-o||-4---4---4-6-4---3-----------------|
|----------------------------------||-----------------------------------|
|
| PM----------------------------|
|----------------------------------||-----------------------------------|
|---------------------------------o||-----------------------------------|
|-4-4-4-4-4-4-4-4------------------||-6-6-6-6-6-6-6-6-------------------|
|-4-4-4-4-4-4-4-4-4-4-4-4-4-4-4-4--||-6-6-6-6-6-6-6-6-6-6-6-6-6-6-6-6---|
|-2-2-2-2-2-2-2-2-4-4-4-4-4-4-4-4-o||-4-4-4-4-4-4-4-4-6-6-6-6-6-6-6-6---|
|-----------------2-2-2-2-2-2-2-2--||-----------------4-4-4-4-4-4-4-4---|


|----------------------------------||------------------------------------|
|---------------------------------o||------------------------------------|
|----------------------------------||-9---9---9-11-9---8-----------------|
|----------------------------------||------------------------------------|
|-2---2---2-4-2---1---------------o||------------------------------------|
|----------------------------------||------------------------------------|
|
|----------------------------------||------------------------------------|
|---------------------------------o||------------------------------------|
|-4-4-4-4-4-4-4-4------------------||-8-8-8-8-8--8-8-8-------------------|
|-4-4-4-4-4-4-4-4-4-4-4-4-4-4-4-4--||-8-8-8-8-8--8-8-8-8-8-8-8-8-8-8-8---|
|-2-2-2-2-2-2-2-2-4-4-4-4-4-4-4-4-o||-6-6-6-6-6--6-6-6-8-8-8-8-8-8-8-8---|
|-----------------2-2-2-2-2-2-2-2--||------------------6-6-6-6-6-6-6-6---|


|---------------------------------*|----|
|---------------------------------*|----|
|-7---7---7-9-7---6---------------*|----|
|---------------------------------*|----|
|---------------------------------*|----|
|---------------------------------*|----|
|
|---------------------------------*|----|
|---------------------------------*|----|
|-6-6-6-6-6-6-6-6-----------------*|----|
|-6-6-6-6-6-6-6-6-6-6-6-6-6-6-6-6-*|----|
|-4-4-4-4-4-4-4-4-6-6-6-6-6-6-6-6-*|----|
|-----------------4-4-4-4-4-4-4-4-*|----|


Tablature Legend
----------------
 h   - hammer-on
 p   - pull-off
 b   - bend
 pb  - pre-bend
 r   - bend release (if no number after the r, then release immediately)
 /\  - slide into or out of (from/to "nowhere")
 s   - legato slide
 S   - shift slide
 - natural harmonic
[n]  - artificial harmonic
n(n) - tapped harmonic
 ~   - vibrato
 tr  - trill
 T   - tap
 TP  - trem. picking
 PM  - palm muting
\n/  - tremolo bar dip; n = amount to dip
 \n  - tremolo bar down
 n/  - tremolo bar up
/n\  - tremolo bar inverted dip
 =   - hold bend; also acts as connecting device for hammers/pulls
 <> - volume swell (louder/softer)
 x   - on rhythm slash represents muted slash
 o   - on rhythm slash represents single note slash

Misc Legend
-----------
 |  - bar
||  - double bar
||o - repeat start
o|| - repeat end
*|  - double bar (ending)
 :  - bar (freetime)
 $  - Segno
 &  - Coda
Tempo markers -  = BPM(8/16=s8/s16), where s8 = swing 8ths, s16 = swing 16ths

** Generated using Power Tab Editor by Brad Larsen: The Official Power Tab Web Site
Tap to rate this tab
 
# A B C D E F G H I J K L M N O P Q R S T U V W X Y Z