Song name
# A B C D E F G H I J K L M N O P Q R S T U V W X Y Z

Think Harder - Unexpected tab

#----------------------------------PLEASE NOTE---------------------------------#
#This file is the author's own work. You may only use this file for private study, 
scholarship, or research. #
#------------------------------------------------------------------------------#





Gtr I (E A D G B E) - 'Unexpected'
 Q=240
   4/4
    Gtr I
Intro
||--------------------------------------------||----------------|
||o------------------------------------------o||----------------|
||--------------------------------------------||----------------|
||--------------------------------------------||-9-9--7-7-x-5---|
||o-5-5-5------------------------------------o||-9-9--7-7-x-5---|
||--------7--5--5--5-5-5-7-7-7-5-3--3--3-3-3--||-7-7--5-5-x-3---|


   Verse      
||-----------------------------------------------------||--------------|
||o---------------------------------------------------o||--------------|
||--7-7-7----------------------------------------------||--------------|
||--7-7-7-9--7-7-7-7-7-7-7-7-9-9-9-7--5-5-5-5-5-5-5-5--||-9-9-7-7-x-5--|
||o-5-5-5-9--7-7-7-7-7-7-7-7-9-9-9-7--5-5-5-5-5-5-5-5-o||-9-9-7-7-x-5--|
||--------7--5-5-5-5-5-5-5-5-7-7-7-5--3-3-3-3-3-3-3-3--||-7-7-5-5-x-3--|

Chorus
||-------------------------------------------------------------------|
||o------------------------------------------------------------------|
||--7-7-7-7-7-7-7-7-----------------7-7-7-7-7-7-7-7------------------|
||--7-7-7-7-7-7-7-7-5-5-5-5-5-5-5-5-7-7-7-7-7-7-7-7-7-7-7-7-7-7-7-7--|
||o-5-5-5-5-5-5-5-5-5-5-5-5-5-5-5-5-5-5-5-5-5-5-5-5-7-7-7-7-7-7-7-7--|
||------------------3-3-3-3-3-3-3-3-----------------5-5-5-5-5-5-5-5--|

                                                    Slow Part
|------------------------------------------------||--------------------|
|-----------------------------------------------o||--------------------|
|-7-7-7-7-7-7-7-7-----------------------5-5-x-7--||-7---7---7-----5-7--|
|-7-7-7-7-7-7-7-7-5-5-5-5-5-5-5-5-7-7-7-5-5-x-7--||---5---7---5-7------|
|-5-5-5-5-5-5-5-5-5-5-5-5-5-5-5-5-7-7-7-3-3-x-5-o||--------------------|
|-----------------3-3-3-3-3-3-3-3-5-5-5----------||--------------------|

Breakdown
|--------------------------------------------------------------------|
|--------------------------------------------------------------------|
|-x-x-7-x-x-x-7-x-----------------x-x-7-x-x-x-7-x--------------------|
|-x-x-7-x-x-x-7-x-x-x-5-x-x-x-5-x-x-x-7-x-x-x-7-x-x-x-7-x-x-x-7-x----|
|-x-x-5-x-x-x-5-x-x-x-5-x-x-x-5-x-x-x-5-x-x-x-5-x-x-x-7-x-x-x-7-x----|
|-----------------x-x-3-x-x-x-3-x-----------------x-x-5-x-x-x-5-x----|


|--------------------------------------------------|
|--------------------------------------------------|
|-x-x-7-x-x-x-7-x-----------------------5-5-x-7----|
|-x-x-7-x-x-x-7-x-x-x-5-x-x-x-5-x-7-7-7-5-5-x-7----|
|-x-x-5-x-x-x-5-x-x-x-5-x-x-x-5-x-7-7-7-3-3-x-5----|
|-----------------x-x-3-x-x-x-3-x-5-5-5------------|


Tablature Legend
----------------
 h   - hammer-on
 p   - pull-off
 b   - bend
 pb  - pre-bend
 r   - bend release (if no number after the r, then release immediately)
 /\  - slide into or out of (from/to "nowhere")
 s   - legato slide
 S   - shift slide
 - natural harmonic
[n]  - artificial harmonic
n(n) - tapped harmonic
 ~   - vibrato
 tr  - trill
 T   - tap
 TP  - trem. picking
 PM  - palm muting
\n/  - tremolo bar dip; n = amount to dip
 \n  - tremolo bar down
 n/  - tremolo bar up
/n\  - tremolo bar inverted dip
 =   - hold bend; also acts as connecting device for hammers/pulls
 <> - volume swell (louder/softer)
 x   - on rhythm slash represents muted slash
 o   - on rhythm slash represents single note slash

Misc Legend
-----------
 |  - bar
||  - double bar
||o - repeat start
o|| - repeat end
*|  - double bar (ending)
 :  - bar (freetime)
 $  - Segno
 &  - Coda
Tempo markers -  = BPM(8/16=s8/s16), where s8 = swing 8ths, s16 = swing 16ths

** Generated using Power Tab Editor by Brad Larsen: The Official Power Tab Web Site
Tap to rate this tab
 
# A B C D E F G H I J K L M N O P Q R S T U V W X Y Z