Song name
# A B C D E F G H I J K L M N O P Q R S T U V W X Y Z

Think Harder - Dream Girl tab

#----------------------------------PLEASE NOTE---------------------------------#
#This file is the author's own work. You may only use this file for private study, 
scholarship, or research. #
#------------------------------------------------------------------------------#


email thinkharderband@gmail.com for any questions.

or if your really freaking desperate, gorillazman57@gmail.com


Gtr I (E A D G B E) - 'Dream Girl'

 4/4
  Gtr I          (Rhythm throughout the whole song)
|-------------|--------------|-------------|--------------|----|
|-------------|--------------|-------------|--------------|----|
|-9-9-9---9---|--------------|-7-7-7---7---|--------------|----|
|-9-9-9---9---|-9-9-9---9----|-7-7-7---7---|-7-7-7---7----|----|
|-7-7-7-x-7-x-|-9-9-9---9----|-5-5-5-x-5-x-|-7-7-7---7----|----|
|-------------|-7-7-7-x-7-x--|-------------|-5-5-5-x-5-x--|----|

Verse
|-------------|-------------|-------------|-------------|----|
|-------------|-------------|-------------|-------------|----|
|---9-7-9-7---|-------------|-------------|-------------|----|
|-----------9-|---9-7-9-7---|-7-5-7-5-----|-------------|----|
|-------------|-----------9-|---------7---|-7-5-7-5-----|----|
|-------------|-------------|-------------|---------7---|----|
|
|-------------|-------------|-------------|-------------|----|
|-------------|-------------|-------------|-------------|----|
|-9-9-9---9---|-------------|-7-7-7---7---|-------------|----|
|-9-9-9---9---|-9-9-9---9---|-7-7-7---7---|-7-7-7---7---|----|
|-7-7-7-x-7-x-|-9-9-9---9---|-5-5-5-x-5-x-|-7-7-7---7---|----|
|-------------|-7-7-7-x-7-x-|-------------|-5-5-5-x-5-x-|----|

Chorus
|-------------|-------------|-------------|-------------|----|
|-------------|-------------|-------------|-------------|----|
|-------------|-------------|-------------|-------------|----|
|-------------|-------------|-------------|-------------|----|
|-5-5-5-7-5---|-4-----------|-3-3-3-5-3---|-2-----------|----|
|-------------|-------------|-------------|-------------|----|
|
|-------------|-------------|-------------|-------------|----|
|-------------|-------------|-------------|-------------|----|
|-9-9-9-x-9-x-|-------------|-7-7-7-x-7-x-|-------------|----|
|-9-9-9-x-9-x-|-9-9-9-x-9-x-|-7-7-7-x-7-x-|-7-7-7-x-7-x-|----|
|-7-7-7-x-7-x-|-9-9-9-x-9-x-|-5-5-5-x-5-x-|-7-7-7-x-7-x-|----|
|-------------|-7-7-7-x-7-x-|-------------|-5-5-5-x-5-x-|----|


Tablature Legend
----------------
 h   - hammer-on
 p   - pull-off
 b   - bend
 S   - shift slide
 PM  - palm muting
 x   - on rhythm slash represents muted slash


Misc Legend
-----------
 |  - bar
||  - double bar
||o - repeat start
o|| - repeat end
*|  - double bar (ending)

** Generated using Power Tab Editor by Brad Larsen: The Official Power Tab Web Site
Tap to rate this tab
 
# A B C D E F G H I J K L M N O P Q R S T U V W X Y Z