Song name
# A B C D E F G H I J K L M N O P Q R S T U V W X Y Z

Think Harder - Monster tab

#----------------------------------PLEASE NOTE---------------------------------#
#This file is the author's own work and represents their interpretation of the #
#song. You may only use this file for private study, scholarship, or research. #
#------------------------------------------------------------------------------#









Gtr I (E A D G B E) - 'Monster'


 4/4
  Gtr I         Intro/verse
|----------------------------------------------------|
|----------------------------------------------------|
|-8-8----6-6-----------------------------------------|
|-8-8----6-6-------6-6-------4-4-4-4-8-8-8-8-8-8-8---|
|-6-6----4-4-------6-6-------4-4-4-4-8-8-8-8-8-8-8---|
|------------------4-4-------2-2-2-2-6-6-8-6-6-6-6---|

chorus
|----------------------------------------------------------------------|
|----------------------------------------------------------------------|
|-8-8-8-8-8-8-8-8-8-8-6-6-6-6-6-6-6-6-6-6------------------------------|
|-8-8-8-8-8-8-8-8-8-8-6-6-6-6-6-6-6-6-6-6-6-6-6-6-6-6-6-6-6-6-4-4-4-4--|
|-6-6-6-6-6-6-6-6-6-6-4-4-4-4-4-4-4-4-4-4-6-6-6-6-6-6-6-6-6-6-4-4-4-4--|
|-----------------------------------------4-4-4-4-4-4-4-4-4-4-2-2-2-2--|

                      Solo (2nd gaytar just plays the verse as rhythm)
|----------------------------------------------------------------------|
|----------------------------------------------------------------------|
|----------------------------------------------------------------------|
|-8-8-8-8-8-8----------------------6---------------------6-------------|
|-8-8-8-8-8-8--6-9-6-9-6-9-6-9-6-9---6-9-6-9-6-9-6-9-6-9---6-9-6-9-6-9-|
|-6-6-6-6-6-6----------------------------------------------------------|


|----------------------------------------------------------------------|
|---------------------------------------------7---------------------7--|
|-------------------6-8-8-6-8-6-8-6-8-6-8-6-8---6-8-6-8-6-8-6-8-6-8----|
|---------6-----6-8----------------------------------------------------|
|-6-9-6-9---6-9--------------------------------------------------------|
|----------------------------------------------------------------------|


|-----------------------------------------------------------------------|
|---------------------7-7-----------------------------------------------|
|-6-8-6-8-6-8-6-8-6-8-----8-6-------------------------------------------|
|-----------------------------8-6-----------------------4---------------|
|---------------------------------9-6-6-4-6-4-6-4-6-4-6---4-6-4-6-4-6-4-|
|-----------------------------------------------------------------------|


|-----------------------------------------------------------------------|
|-----------------------------------------7---------------------7-------|
|-------------------6-8-8-6-8-6-8-6-8-6-8---6-8-6-8-6-8-6-8-6-8---6-8-6-|
|-------4-------6-8-----------------------------------------------------|
|-6-4-6---4-6-9---------------------------------------------------------|
|-----------------------------------------------------------------------|


|------------------------------------|
|---------------7-7------------------|
|-8-6-8-6-8-6-8-----8-6--------------|
|-----------------------8-6----------|
|---------------------------9-6-6----|
|------------------------------------|


Tablature Legend
----------------
 h   - hammer-on
 p   - pull-off
 b   - bend
 S   - shift slide
 T   - tap
 PM  - palm muting
 x   - on rhythm slash represents muted slash
 

Misc Legend
-----------
 |  - bar
||  - double bar
||o - repeat start
o|| - repeat end
*|  - double bar (ending)
 :  - bar (freetime)

any questions email thinkharderband@gmail.com

or if your really freaking desperate, gorillazman57@gmail.com
Tap to rate this tab
 
# A B C D E F G H I J K L M N O P Q R S T U V W X Y Z