Song name
# A B C D E F G H I J K L M N O P Q R S T U V W X Y Z

Third Day - Call My Name tab

My version:

E|-------12-14-11--------------9~----12~-------11----14----19~-------------|
B|----14----------12----9-10------9------12-------12----16-----------------|
G|-13----------------11------9------9--------11----------------------------|
D|-------------------------------------------------------------------------|
A|-------------------------------------------------------------------------|
E|-------------------------------------------------------------------------|


Live solo:

E|-------12/14-11----------5---9~-4---12~-7---11----14----19~--------------|
B|----14----------12\---/9---5------5-------7----12----16------------------|
G|-13----------------\7/---------------------------------------------------|
D|-------------------------------------------------------------------------|
A|-------------------------------------------------------------------------|
E|-------------------------------------------------------------------------|

Tap to rate this tab
# A B C D E F G H I J K L M N O P Q R S T U V W X Y Z