Song name
# A B C D E F G H I J K L M N O P Q R S T U V W X Y Z

Third Day - This Is Who I Am tab

E-----------------------------------------------12-14-----------|
B-15-15-16-14-14-12-12-14-11-11-15-15-16-14-14----12-----11-----|
G-----------------------------------------------------9-11------|
D---------------------------------------------------------------|
A---------------------------------------------------------------|
E---------------------------------------------------------------|

E-----------------------------------------------12-14-16-17b----|
B-15-15-16-14-14-12-12-14-11-11-15-15-16-14-14---12-12-12-------|
G---------------------------------------------------------------|
D---------------------------------------------------------------|
A---------------------------------------------------------------|
E---------------------------------------------------------------|
Tap to rate this tab
 
# A B C D E F G H I J K L M N O P Q R S T U V W X Y Z