Song name
# A B C D E F G H I J K L M N O P Q R S T U V W X Y Z

Third Day - Caught Up In Yourself tab

Band:   Third Day
Album:  Revelation
Song:   Caught Up In Yourself
Tuning: Guitar 1 Standart
        Guitar 2 Standart

This is one of my favourite song.
I gave my best to tab it right.
Have fun.


Legend:

~ let ring
h hammer-on
p pull-off
x palm mute


Intro:


Guitar 2  0:01

e|--5~------|
B|--5~------|
G|--5~------|
D|--7~------|
A|----------|
E|----------|


Verse:


First just bass, then

Guitar 1  0:12

e|------------0----------|
B|----------3---3--------|
G|------2---------2------|
D|--0h2---2--------------|
A|-----------------------|
E|-----------------------|


Guitar 2  0:13

e|--5~------|
B|--5~------|
G|--5~------|
D|--7~------|
A|----------|
E|----------|



Guitar 1  0:14

e|---------------------------------------------|
B|---------------------------------------------|
G|----------------------55-5-5-5---------------|
D|--77-7-7-7--33-3-3-3--55-5-5-5--55-5-5-5-----|
A|--77-7-7-7--33-3-3-3--33-3-3-3--55-5-5-5-----|
E|--55-5-5-5--11-1-1-1------------33-3-3-3-----|
    xx   x    xx   x    xx   x    xx   x

e|----------------------------------------------0------|
B|--------------------------------------------3---3----|
G|----------------------55-5-5-5----------2---------2--|
D|--77-7-7-7--33-3-3-3--55-5-5-5--55--0h2---2----------|
A|--77-7-7-7--33-3-3-3--33-3-3-3--55-------------------|
E|--55-5-5-5--11-1-1-1------------33-------------------|
    xx   x    xx   x    xx   x    xx

Guitar 2  0:14

e|--55555555--11111111--33333333--33333333-----|
B|--55555555--11111111--33333333--33333333-----|
G|--55555555--11111111--55555555--44444444-----|
D|--77777777--33333333--55555555--55555555-----|
A|--77777777--33333333--33333333--55555555-----|
E|--55555555--11111111------------33333333-----|

e|--55-7-8------8~--10~--------|
B|---------6~------------------|
G|-----------------------------|
D|-----------------------------|
A|-----------------------------|
E|-----------------------------|


Pre Chorus:


Guitar 1  0:27

e|---------------|
B|---------------|
G|------5~-------|
D|--3~--5~--5~---|
A|--3~--3~--5~---|
E|--1~------3~---|

Guitar 2  0:27

e|--1~--3~--3~---|
B|--1~--3~--3~---|
G|--1~--5~--4~---|
D|--3~--5~--5~---|
A|--3~--3~--5~---|
E|--1~------3~---|



Chorus:


Guitar 1  0:34

e|---------------------------------------------------------------------|
B|---------------------------------------------------------------------|
G|--------------------55555555-77777777--------------------------------|
D|--77777777-33333333-55555555-77777777-33333333-77777777-55555555-----|
A|--77777777-33333333-33333333-55555555-33333333-77777777-55555555-----|
E|--55555555-11111111-------------------11111111-55555555-33333333-----|

Guitar 2  0:34

e|--55555555-11111111-33333333-55555555-11111111-55555555-33333333-----|
B|--55555555-11111111-33333333-55555555-11111111-55555555-33333333-----|
G|--55555555-11111111-55555555-77777777-11111111-55555555-44444444-----|
D|--77777777-33333333-55555555-77777777-33333333-77777777-55555555-----|
A|--77777777-33333333-33333333-55555555-33333333-77777777-55555555-----|
E|--55555555-11111111-------------------11111111-55555555-33333333-----|



Verse 2:


Guitar 2  0:47

e|--5~------|
B|--5~------|
G|--5~------|
D|--7~------|
A|----------|
E|----------|

Guitar 1  0:48

e|---------------------------------------------|
B|---------------------------------------------|
G|----------------------55-5-5-5---------------|
D|--77-7-7-7--33-3-3-3--55-5-5-5--55-5-5-5-----|
A|--77-7-7-7--33-3-3-3--33-3-3-3--55-5-5-5-----|
E|--55-5-5-5--11-1-1-1------------33-3-3-3-----|
    xx   x    xx   x    xx   x    xx   x

e|----------------------------------------------0------|
B|--------------------------------------------3---3----|
G|----------------------55-5-5-5----------2---------2--|
D|--77-7-7-7--33-3-3-3--55-5-5-5--55--0h2---2----------|
A|--77-7-7-7--33-3-3-3--33-3-3-3--55-------------------|
E|--55-5-5-5--11-1-1-1------------33-------------------|
    xx   x    xx   x    xx   x    xx

Guitar 2  0:48

e|--55-7-8-----10-8-7~---55-7-8----8~--10~---|
B|---------6~--10---7~----------6~-8~--10~---|
G|-------------------------------------------|
D|-------------------------------------------|
A|-------------------------------------------|
E|-------------------------------------------|



Pre Chorus 2:


Guitar 1  1:01

e|---------------|
B|---------------|
G|------5~-------|
D|--3~--5~--5~---|
A|--3~--3~--5~---|
E|--1~------3~---|

Guitar 2  1:01

e|--1~--3~--3~---|
B|--1~--3~--3~---|
G|--1~--5~--4~---|
D|--3~--5~--5~---|
A|--3~--3~--5~---|
E|--1~------3~---|



Chorus 2:


Guitar 1  1:08

e|---------------------------------------------------------------------|
B|---------------------------------------------------------------------|
G|--------------------55555555-77777777--------------------------------|
D|--77777777-33333333-55555555-77777777-33333333-77777777-55555555-----|
A|--77777777-33333333-33333333-55555555-33333333-77777777-55555555-----|
E|--55555555-11111111-------------------11111111-55555555-33333333-----| 2x

Guitar 2  1:08

e|--55555555-11111111-33333333-55555555-11111111-55555555-33333333-----|
B|--55555555-11111111-33333333-55555555-11111111-55555555-33333333-----|
G|--55555555-11111111-55555555-77777777-11111111-55555555-44444444-----|
D|--77777777-33333333-55555555-77777777-33333333-77777777-55555555-----|
A|--77777777-33333333-33333333-55555555-33333333-77777777-55555555-----|
E|--55555555-11111111-------------------11111111-55555555-33333333-----| 2x
 


Bridge:


Guitar 1  1:36

e|------------------------------------------|
B|------------------------------------------|
G|-----------55555555----------77777777-----|
D|--33333333-55555555-55555555-77777777-----|
A|--33333333-33333333-55555555-55555555-----|
E|--11111111----------33333333--------------|

e|------------------------------------------|
B|------------------------------------------|
G|-----------55555555-----------------------|
D|--33333333-55555555-55555555-55555555-----|
A|--33333333-33333333-55555555-55555555-----|
E|--11111111----------33333333-33333333-----|

Guitar 2  1:36

e|--11111111-33333333-33333333-55555555-----|
B|--11111111-33333333-33333333-55555555-----|
G|--11111111-55555555-44444444-77777777-----|
D|--33333333-55555555-55555555-77777777-----|
A|--33333333-33333333-55555555-55555555-----|
E|--11111111----------33333333--------------|

e|--11111111-33333333-33333333-33333333-----|
B|--11111111-33333333-33333333-33333333-----|
G|--11111111-55555555-44444444-44444444-----|
D|--33333333-55555555-55555555-55555555-----|
A|--33333333-33333333-55555555-55555555-----|
E|--11111111----------33333333-33333333-----|



Solo:


Guitar 1  1:49

e|--5555-3333-00000000-----------00000000-----|
B|--5555-3333-11111111-3333-8888-55555555-----|
G|---------------------4444-9999-55555555-----|
D|--------------------------------------------|
A|--------------------------------------------|
E|--------------------------------------------|

e|--5555-8888-00000000------------------------------------|
B|--5555-5555-11111111-3h5p3h5p3h5p3h5p3h5p3h5p3h5p33-----|
G|---------------------4-4-4-4-4-4-4-4-4-4-4-4-4-4-44-----|
D|--------------------------------------------------------|
A|--------------------------------------------------------|
E|--------------------------------------------------------|

Guitar 2  1:49

e|--11111111-33333333-33333333-55555555-----|
B|--11111111-33333333-33333333-55555555-----|
G|--11111111-55555555-44444444-55555555-----|
D|--33333333-55555555-55555555-77777777-----|
A|--33333333-33333333-55555555-77777777-----|
E|--11111111----------33333333-55555555-----|

e|--11111111-33333333-33333333-33333333-----|
B|--11111111-33333333-33333333-33333333-----|
G|--11111111-55555555-44444444-44444444-----|
D|--33333333-55555555-55555555-55555555-----|
A|--33333333-33333333-55555555-55555555-----|
E|--11111111----------33333333-33333333-----|


Interlude:


Guitar 1  2:03

e|---------------|
B|---------------|
G|------5~-------|
D|--3~--5~--5~---|
A|--3~--3~--5~---|
E|--1~------3~---|

Guitar 2  2:03

e|--1~--3~--3~---|
B|--1~--3~--3~---|
G|--1~--5~--4~---|
D|--3~--5~--5~---|
A|--3~--3~--5~---|
E|--1~------3~---|


Chorus 3:


Guitar 1  2:09

e|---------------------------------------------------------------------|
B|---------------------------------------------------------------------|
G|--------------------55555555-77777777--------------------------------|
D|--77777777-33333333-55555555-77777777-33333333-77777777-55555555-----|
A|--77777777-33333333-33333333-55555555-33333333-77777777-55555555-----|
E|--55555555-11111111-------------------11111111-55555555-33333333-----| 2x

Guitar 2  2:09

e|--55555555-11111111-33333333-55555555-11111111-55555555-33333333-----|
B|--55555555-11111111-33333333-55555555-11111111-55555555-33333333-----|
G|--55555555-11111111-55555555-77777777-11111111-55555555-44444444-----|
D|--77777777-33333333-55555555-77777777-33333333-77777777-55555555-----|
A|--77777777-33333333-33333333-55555555-33333333-77777777-55555555-----|
E|--55555555-11111111-------------------11111111-55555555-33333333-----| 2x


Bridge 2:


Guitar 1  2:36

e|------------------------------------------|
B|------------------------------------------|
G|-----------55555555----------77777777-----|
D|--33333333-55555555-55555555-77777777-----|
A|--33333333-33333333-55555555-55555555-----|
E|--11111111----------33333333--------------|

e|------------------------------------------|
B|------------------------------------------|
G|-----------55555555-----------------------|
D|--33333333-55555555-55555555-55555555-----|
A|--33333333-33333333-55555555-55555555-----|
E|--11111111----------33333333-33333333-----| 2x

Guitar 2  2:36

e|--11111111-33333333-33333333-55555555-----|
B|--11111111-33333333-33333333-55555555-----|
G|--11111111-55555555-44444444-77777777-----|
D|--33333333-55555555-55555555-77777777-----|
A|--33333333-33333333-55555555-55555555-----|
E|--11111111----------33333333--------------|

e|--11111111-33333333-33333333-33333333-----|
B|--11111111-33333333-33333333-33333333-----|
G|--11111111-55555555-44444444-44444444-----|
D|--33333333-55555555-55555555-55555555-----|
A|--33333333-33333333-55555555-55555555-----|
E|--11111111----------33333333-33333333-----| 2x


Outro:


Guitar 1  3:03

e|--5555-3333-00000000-----------00000000-----|
B|--5555-3333-11111111-3333-8888-55555555-----|
G|---------------------4444-9999-55555555-----|
D|--------------------------------------------|
A|--------------------------------------------|
E|--------------------------------------------|

e|--5555-8888-00000000-7777-8888-1010101010101010-----|
B|--5555-5555-11111111-7777-7777-1010101010101010-----|
G|----------------------------------------------------|
D|----------------------------------------------------|
A|----------------------------------------------------|
E|----------------------------------------------------|

Guitar 2  3:03

e|--11111111-33333333-33333333-55555555-----|
B|--11111111-33333333-33333333-55555555-----|
G|--11111111-55555555-44444444-55555555-----|
D|--33333333-55555555-55555555-77777777-----|
A|--33333333-33333333-55555555-77777777-----|
E|--11111111----------33333333-55555555-----|

e|--11111111-33333333-33333333-33333333-----|
B|--11111111-33333333-33333333-33333333-----|
G|--11111111-55555555-44444444-44444444-----|
D|--33333333-55555555-55555555-55555555-----|
A|--33333333-33333333-55555555-55555555-----|
E|--11111111----------33333333-33333333-----|


then both guitars:

e|-------|
B|-------|
G|-------|
D|--7~---|
A|--7~---|
E|--5~---|



Lyrics:

Take a good look around you
And I'm sure that you are bound to
Think that all you have comes down to
You and what you've done
If you look far beyond this
There's a life I hope you don't miss
What has kept you from moving on
Is learning to let go

And there's so much more
Than what you're looking for

Caught up in yourself
Call it like it is
Well, you're so good
But you'll never be good enough

You think if you surrender
It's the end, but just remember
Life is more than dying embers
Burning in your soul

And I know it's true
'Cause I am just like you

Thank God for mercy
Thank God for His grace
Thank God for everything you've got
Before it's too late

And there's so much more
Than what you're looking for
Tap to rate this tab
# A B C D E F G H I J K L M N O P Q R S T U V W X Y Z