Song name
# A B C D E F G H I J K L M N O P Q R S T U V W X Y Z

Third Day - I Will Always Be True tab

Help us improve GuitareTab! Take a short survey!
e----------------------------------------------------------------------------|
B------13-12-13-13-15-15-20-20-15-20-20-15-20-15-13-12-----------------12-13-|
G---12-------------------------------------------------12--------------------|
D-12-------------------------------------------------------12-10-9-10-12-----|
A----------------------------------------------------------------------------|
E----------------------------------------------------------------------------|

e---------------------------------------------------------------------------|
B-15-If solo 2 add-13-12----------------------------------------------------|
G-----------------------12--------------------------------------------------|
D---------------------------------------------------------------------------|
A---------------------------------------------------------------------------|
E---------------------------------------------------------------------------|

This is a great song. Highly recommend Third Day. It is originally done with a steel 
and a slide, but can be played with acoustic or your average electric. Enjoy!
Related for I Will Always Be True tab