Song name
# A B C D E F G H I J K L M N O P Q R S T U V W X Y Z

Third Day - Otherside tab

e-7----7-12-7-----12--10----7---5---7-19-17-15------------------------------|
B---10-------10-8---12---10---8---5------------17-15-12----------12-15-17---|
G-------------------------------------------------------14-12-14------------|
D---------------------------------------------------------------------------|
A---------------------------------------------------------------------------|
E---------------------------------------------------------------------------|

e------------------------------10-12-12-7-10-12-10-12-Two-times-12---10-----|
B-17-15-12-three-times-Play REALLY-fast----------------------------12---10--|
G---------------------------------------------------------------------------|
D---------------------------------------------------------------------------|
A---------------------------------------------------------------------------|
E---------------------------------------------------------------------------|

e-7---5---|
B---8---5-|
G---------|
D---------|
A---------|
E---------|

I know this is on pedal steel, but you can play it on regular electric. There is also a 
to picking REALLY fast! I'm a Third Day fan.
It takes a while to figure it out, but this works. It's a great song! Enjoy!~
Tap to rate this tab
# A B C D E F G H I J K L M N O P Q R S T U V W X Y Z