Song name
# A B C D E F G H I J K L M N O P Q R S T U V W X Y Z

Third Day - Slow Down tab

Help us improve GuitareTab! Take a short survey!
Im not 100% sure this is correct but it sounds pretty close, and since part of
this solo is muffled i kinda made up part of it but still it sounds close.
Capo 3rd fret

e-------2-3--7-5---7/5---------------2-3-7-5-10--10/7--------------|
b--5-5------------------5/3------5-5-------------------------------|
g------------------------------------------------------------------|
d------------------------------------------------------------------|
a------------------------------------------------------------------|
E------------------------------------------------------------------|


e----------------------------------13-16/15/13---15b---13----------|
b------------------------------------------------------------------|
g--2b----3br-------------------------------------------------------|
d------------5h--4--2~~~~~~----------------------------------------|
a------------------------------------------------------------------|
E---------------------------0--------------------------------------|

b=Bend
r=release
/=slide or move quickly to next note

Thats all of it like i said its not 100% accurate but its close
Related for Slow Down tab