Song name
# A B C D E F G H I J K L M N O P Q R S T U V W X Y Z

Third Day - Call My Name tab

Here's the solo for this song

---------------------------------------------------14h16-14/12-12-----------|
----------------12h9-----------------------12h9-----------------------------|
--11-11-13-11/9------9--------11-11-13-11/9-----9---------------------------|
----------------------------------------------------------------------------|
----------------------------------------------------------------------------|
----------------------------------------------------------------------------|

----------------------------11-14-11-----------9~----12-------11---14----19~-|
----------------12~~---9-12---------12-9~~10------9------12-9----12---12-----|
--11-11-13-11/9------------------------------9------9------------------------|
-----------------------------------------------------------------------------|
-----------------------------------------------------------------------------|
-----------------------------------------------------------------------------|


I'm pretty sure this is 100% correct
Tap to rate this tab
# A B C D E F G H I J K L M N O P Q R S T U V W X Y Z