Song name
# A B C D E F G H I J K L M N O P Q R S T U V W X Y Z

Third Day - Billy Brown tab

Artist: Third Day
Song: Billy Brown
Date: 12/13/09
Album: Wire

e|-9-10-9--9-10-9-------------------------------------------|
B|----------------12-10-12-10-9-10-9--------9---------------|
G|-----------------------------------11-9-11--11-9-11-9----9|
D|-------------------------------------------------------11-|
A|----------------------------------------------------------|
E|----------------------------------------------------------|

e|-9-10-9--9-10-9------------------------------------9-10---|
B|---------------12-10-12-10-9-------------9-9-10-12--------|
G|-----------------------------11-9-9-11-11-----------------|
D|----------------------------------------------------------|
A|----------------------------------------------------------|
E|----------------------------------------------------------|

thats it! 100% correct! i think it is on some sort of steel guitar, but i dont know 
i still like playing it! lol hope you like it
Tap to rate this tab
# A B C D E F G H I J K L M N O P Q R S T U V W X Y Z