Song name
# A B C D E F G H I J K L M N O P Q R S T U V W X Y Z

Third Day - Otherside tab

This is one of my favorite Christian Rock songs. This tab sounds good to me.

                                 -INTRO-
  -Guitar 1
e---------------------------------------------|
B---------------------------------------------|
G---------------------------------------------|
D--------------9-7-5--------------------------|
A-5/7---7-5-7--------7-7--5/7---7-5-7--7\2----|
E------------------------------------------0--|

  -Guitar 2
e-------------7-------------------------------|
B---------------10-7--------------------------|
G-7/9---9-7-9--------7-9--7/9---9-7-9--4\0----|
D------------------------------------------2--|
A---------------------------------------------|
E---------------------------------------------|

                                 -VERSE 1
  -Guitar 1         -Guitar 2
e-----------------|----------------------------------------------|
B-----------------|----------------------------------------------|
G-----------------|----------------------------------------------|
D-----------------|--------------9-7-5---------------------------|
A-5-5--7==---2==--|-5/7---7-5-7--------7-7--5/7---7-5-7--7\2-----|
E-3-3--5==---0==--|------------------------------------------0---|

  -Guitar 1         -Guitar 2
e-----------------|----------------------------------------------|
B-----------------|----------------------------------------------|
G-----------------|----------------------------------------------|
D-----------------|--------------9-7-5---------------------------|
A-7==---2==-------|-5/7---7-5-7--------7-7--5/7---7-5-7--7\2-----|
E-5==---0==-------|------------------------------------------0---|

  -Guitar 1 and Guitar 2
e---------------------------------|
B---------------------------------|
G---------------------------------|
D----------------------12-11------|
A-5-5-5-5-5-5-5-5--7---10--9------|
E-3-3-3-3-3-3-3-3--5--------------|


That's it. I only got the Intro and First Verse for now. Hope this tab comes in 
use. Please Comment! Thank You!
                                  
Tap to rate this tab
 
# A B C D E F G H I J K L M N O P Q R S T U V W X Y Z