Song name
# A B C D E F G H I J K L M N O P Q R S T U V W X Y Z

Third Day - Mountain Of God tab

Mountain of God
Third Day

Key D

E|----------------------------------3--5--|
B|-----------5--7--5----------------3--2--|
G|-----------6--7--6--6--7-------7--0--2--|
D|--0--0--0-----------------4/5-----0--2--|
A|----------------------------------------|
E|----------------------------------------|
Verse (there's no intro)
D
Thought that I was all alone
A
Broken and afraid
Em
But You were there with me
G                             A
Yes, You were there with me
D
And I didn't even know
A
That I had lost my way
Em
But You were there with me
G                             A
Yes, You were there with me


Pre Chorus (0:26)
         C            G/b
'Til You opened up my eyes
        A
I never knew
       C             G/B
That I couldn't ever make it
        A
Without You


Chorus (0:40)
                D
Even though the journey's long
               A
And I know the road is hard
          Em
Well, the One who's gone before me
        G                    A
He will help me carry on
               D
After all that I've been through
           A
Now I re-a-lize the truth
       Em
That I must go through the valley
   G              A
To stand upon the mountain of God


Verse 2 (1:10)

As I travel on the road

That You have lead me down

You are here with me

Yes, You are here with me

I have need for nothing more

Oh, now that I have found

That You are here with me

Yes, You are here with me


Pre Chorus 2 (1:35)
         C            G/b
I confess from time to time
        A
I lose my way
       C             G/B
But You are always there
       A
To bring me back again


Chorus 2 (1:49)
                D
Even though the journey's long
               A
And I know the road is hard
          Em
Well, the One who's gone before me
        G                    A
He will help me carry on
               D
After all that I've been through
           A
Now I re-a-lize the truth
       Em
That I must go through the valley
   G              A
To stand upon the mountain of God


E|-----------------------------------------------------------|
B|--8-----8/10--8--8-----8/10\8--7-----7-----7-----7/8\7-----|
G|-----------------------------------------------------------|
D|----------------------------------0-----0-----0------------|
A|-----8--------------8--------------------------------------|
E|-----------------------------------------------------------|


E|--2h3p2p0---------------------------------------|
B|-----------3p2p0--------------------------------|
G|------------------2h4------2--1----1---0--0--2--|
D|------------------------------------------------|
A|------------------------------------------------|
E|------------------------------------------------|
Bridge (2:16)
F                        D
    Sometimes I think of where it is I've come from
F                              D
    And the things I've left behind
       Bm
But of all I've had, what I possessed
  E
Nothing can quite compare
               G
With what's in front of me
               A
With what's in front of me


Chorus (2:45) Modulate to E
                E
Even though the journey's long
               B
And I know the road is hard
          F#m
Well, the One who's gone before me
        A               B
He will help me carry on
               E
After all that I've been through
           B
Now I re-a-lize the truth
       F#m
That I must go through the valley
   B
To stand upon the mountain of God
      F#m
Yes I must go through the valley
   B
To stand upon the mountain
      F#m
Yes I must go through the valley
   B
To stand upon the mountain


Verse Outro (3:28)
E
I Thought that I was all alone
B
Broken and afraid
F#
But You are here with me
A
Yes, You are here with me
Tap to rate this tab
# A B C D E F G H I J K L M N O P Q R S T U V W X Y Z