Song name
# A B C D E F G H I J K L M N O P Q R S T U V W X Y Z

Third Day - Show Me Your Glory tab

Third Day-Show Me Your Glory

Dont Copy... This is my First Tab...Lemme Know What You Think


Intro -
|------------------------------------------------------------------------|
|------------------------------------------------------------------------|
|-------4----7-----------------------------------------------------------|
|---5---4----7-7------5--------------------------------------------------|
|---5---2----5-7------5--------------------------------------------------|
|-2/3----------5----2/3---repeat as needed-------------------------------|

Verse-G,B,D,A Repeated then
G,B,D

Chorus-D,B,G,A

Chorus Lead- Repeat As Needed
|--------12-------------|
|-----15----15----------|
|--14-------------------|
|-----------------------|
|-----------------------|
|-----------------------|

Solo - 2:20
|--------10--------------------------------------------------------|
|--7-------10---------------7--------------------------------------|
|--9b11~-------9-7h9~--7~---9b11--9-7-9b11--9-7-9-----7------------|
|--------------------------------------------------7-9---7-9-------|
|------------------------------------------------------------7/9---|
|------------------------------------------------------------------|


Outro Lead-3:04
|---------------------------------------------------------------|
|--12/10--------------------------12/10------10--------(-7--)---|
|---------9/7-------------9b11------------------7h9----(9b11)---|
|-------------9/7-----------------------------------------------|
|---------------------------------------------------------------|
|---------------------------------------------------------------|

God Is Great!!

-Brett
Tap to rate this tab
 
# A B C D E F G H I J K L M N O P Q R S T U V W X Y Z