Song name
# A B C D E F G H I J K L M N O P Q R S T U V W X Y Z

Third Day - Born In Bethlehem tab

BORN IN BETHLEHEM (INTRO)
Artist: Third Day
Submitted by:  Chad (chadnorm@yahoo.com)

This is my first tab post, so if I am WAY off, don't be surprised.  I had been trying to 
figure out a guitar intro to mimic the dulcimer intro for this song, and think I have it.

CAPO 5th fret!!!!

e-0--0--0---0-----0--0--0---0-------0--0h2-0--0--0----------------------|
B-2--0--0h2-0-----2--0--0h2-0-------2--0---0--2--0----------------------|
G-2--2--2---2-----2--2--2---2-------2--2---2--2--2----------------------|
D-2--2--2---2-----2--2--2---2-------2--2---2--2--2----------------------|
A-----------------------------------------------------------------------|
E-----------------------------------------------------------------------|


e-0--0--0---0-----0--0--0---0-------0--0--0--0--0-----------------------|
B-2--0--0h2-0-----2--0--0h2-0-------0--2--0--2--2-----------------------|
G-2--2--2---2-----2--2--2---2-------2--2--2--2--2-----------------------|
D-2--2--2---2-----2--2--2---2-------2--2--2--2--2-----------------------|
A-----------------------------------------------------------------------|
E-----------------------------------------------------------------------|

Strum pattern affects the accuracy, so listen along to song to get strum pattern correct.

Then, Ver 3 of the chord progression on this site (with correction to F#m), capo'd at 
5th fret, seems to go with the rest of the song.

Please send feedback
Tap to rate this tab
# A B C D E F G H I J K L M N O P Q R S T U V W X Y Z