Song name
# A B C D E F G H I J K L M N O P Q R S T U V W X Y Z

Third Day - Eagles tab

E|----------7--------7-------------0--0---0-0-0--0-0--0-0-0-0------|
B|7--(7)^(9)---7^(9)---(9)R7--5-4----4----4H5---/4---\2---0--------|
G|------------------------------------------------------------2----|
D|-----------------------------------------------------------------|
A|-----------------------------------------------------------------|
E|-----------------------------------------------------------------|

E|---------------------9------12/----------------------------------|
B|------------12-----12----12--------12/13-\-9--\7--9--7H9---------|
G|-----9-11-9-11^(13)----------------------------------------------|
D|9H11-------------------------------------------------------------|
A|-----------------------------------------------------------------|
E|-----------------------------------------------------------------|

Tap to rate this tab
 
# A B C D E F G H I J K L M N O P Q R S T U V W X Y Z