Song name
# A B C D E F G H I J K L M N O P Q R S T U V W X Y Z

Third Day - I Need A Miracle Acoustic tab

Third Day                         tabbed by:
"I Need a Miracle (Acoustic)"          ls311



~ let ring
h hammer on
p pull off


Capo on 2nd



Intro/Verse
e|-----0-----3-5--2~ -|
B|--3--3-2~ -3--------|
G|-------2~ -0--------|
D|----------------0~ -|
A|--2-----------------|
E|--------------------|

Bridge
e|--3-3--2~ --2-2------|
B|--3-3--3~ --3-3--2~ -|
G|--0-0--2~ --4-4--2~ -|
D|--0-0-------4-4--2~ -|
A|--2-2-------2-2------|
E|--3-3-------2-2------|

e|--3~ -----|
B|--3~ -2~ -|
G|--0~ -2~ -|
D|--0~ -2~ -|
A|--2~ -----|
E|--3~ -----|

Pre Chorus
e|------------------------|
B|------------------------|
G|--11-9--7-6--11-9--7-6--|  Remember this is in
D|--12-11-9-7--12-11-9-7--|  relation to the Capo. :)
A|------------------------|
E|------------------------|

Chorus           I like to throw in the little hammer on
e|-33--2222------2222--33-2222(h3p2)2----------|
B|-33--3333--22--3333--33-3333------3--222222--|
G|-00--2222--22--4444--00-2222------2--222222--|
D|-00--------22--4444--00--------------222222--|
A|-22------------2222--22----------------------|
E|-33------------2222--33----------------------|

e|-33--2222------2222--33-----|
B|-33--3333--22--3333--33-22--|
G|-00--2222--22--4444--00-22--|
D|-00--------22--4444--00-22--|
A|-22------------2222--22-----|
E|-33------------2222--33-----|

     "I need a miracle"
e|-33--22222--22---------33--22222--22---------|
B|-33--33333--33-222222--33--33333--33--22222--|
G|-00--22222--44-222222--00--22222--44--22222--|
D|-00---------44-222222--00---------44--22222--|
A|-22---------22---------22---------22---------|
E|-33---------22---------33---------22---------|


These are all the lead guitar parts, just listen
to the song for the progression.

Enjoy and God Bless! :)
Tap to rate this tab
 
# A B C D E F G H I J K L M N O P Q R S T U V W X Y Z