Song name
# A B C D E F G H I J K L M N O P Q R S T U V W X Y Z

Third Day - Everywhere You Go tab

Okay so this is my very first tab. I have made them by ear, so I'm sorry if they are a 
bit wrong, but I'm fairly certain that this is how it plays.

e|----------|
B|-----2----|
G|---2---2--|x4
D|-4--------|
A|----------|
E|----------|

e|----------|
B|-----2----|
G|---2---2--|x4
D|-0--------|
A|----------|
E|----------|

e|-----0----|
B|---0---0--|
G|----------|x4
D|-2--------|
A|----------|
E|----------|

e|----------|
B|-----2----|
G|---2---2--|x4
D|-4--------|
A|----------|
E|----------|
Tap to rate this tab
# A B C D E F G H I J K L M N O P Q R S T U V W X Y Z