Song name
# A B C D E F G H I J K L M N O P Q R S T U V W X Y Z

Third Day - Ive Always Loved You chords

Highlighted       Show chord diagrams
--------------------------------------------------------------------------
                 I've Always Loved You  -  Third Day
--------------------------------------------------------------------------

Chords Used:
   C  [ch]Cmaj9/B[/ch] [ch]Fmaj9/A[/ch]  Am7  G2  G2sus4  Famj7
e|-0-----0-------0------0----3-----3------0---|
B|-1-----1-------1------1----0-----1------1---|
G|-0-----0-------0------0----0-----0------2---|
D|-2-----0-------3------2----0-----0------3---|
A|-3-----2-------0------0----X-----X------0---|
E|-X-----X-------X------X----3-----3------X---|

Capo 4

Intro: C [ch]Cmaj9/B[/ch] [ch]Fmaj9/A[/ch] Am7 [ch]Fmaj9/A[/ch] Am7 G2 G2sus4 G2 G2sus4 G2 G2sus4 G2 G2sus4


Verse 1:
C       [ch]Cmaj9/B[/ch]       [ch]Fmaj9/A[/ch]
 I don't know how to explain it
       Am7                [ch]Fmaj9/A[/ch]  Am7 G2 G2sus4 G2 G2sus4 G2 G2sus4 G2 G2sus4
But I know that words will hard - - ly do
C    [ch]Cmaj9/B[/ch]         [ch]Fmaj9/A[/ch]
 Miracles, signs and wonders
         Am7           Fmaj9 Am7  G2 G2sus4 G2 G2sus4 G2 G2sus4 G2 G2sus4
Aren't enough for me to pro - - ve


Chorus:
Am          Fmaj7            C
 Don't you know I've always loved you
Am    Fmaj7             C
 Even before there was time
Am          Fmaj7
 Though you turn away  
      C [ch]Cmaj9/B[/ch] Am
I'll tell you still
         [ch]Fmaj9/A[/ch]    Am7     G2 G2sus4 G2 G2sus4 G2 G2sus4
Don't you know I've always loved you
G2             C [ch]Cmaj9/B[/ch] [ch]Fmaj9/A[/ch] Am7 [ch]Fmaj9/A[/ch] Am7 G2 G2sus4 G2 G2sus4 G2 G2sus4 G2 G2sus4
 And I always will


Verse 2:
A greater love is not man
Thank the one who gives his life to prove
That he would do anything 
And that's what I'm gonna do for you

Outro: C [ch]Cmaj9/B[/ch] [ch]Fmaj9/A[/ch] Am7 [ch]Fmaj9/A[/ch] Am7 G2 G2sus4 G2 G2sus4 G2 G2sus4 G2 G2sus4


Please rate and comment!
Tap to rate this tab
# A B C D E F G H I J K L M N O P Q R S T U V W X Y Z