Song name
# A B C D E F G H I J K L M N O P Q R S T U V W X Y Z

Third Day - Come On Back To Me tab

~Come on Back to Me~
Standard Tuning
Intro
e---------------------------------------------------------|
B---------------------------------------------------------|
G---------------------------------------------------------|  4x
D---13--13-xxxx-16-16-xxxx-9--9-xxxx-11-11----------------|
A---11--11-xxxx-14-14-xxxx-7--7-xxxx-9--9-----------------|
E---------------------------------------------------------|

Chorus
e---------------------------------------------------------|
B---------------------------------------------------------|
G---------------------------------------------------------|
D---2--2-xxxx-4-4-xxxx------------------------------------|
A---2--2-xxxx-2-2-xxxx-2--2-xxxx-6-6----------------------|
E---0--0-xxxx-----xxxx-4--4-xxxx-4-4----------------------|
Tap to rate this tab
# A B C D E F G H I J K L M N O P Q R S T U V W X Y Z