Song name
# A B C D E F G H I J K L M N O P Q R S T U V W X Y Z

Third Day - My Sorrows tab

----------------------------------------------|
----------------------------------------------|
----------------------------------------------|
----------------------------------------------|
-0-0-0-0-2-2-2-2-5-5---4-4-4-4-4-5-5----------|
-0-0-0-0-0-0-0-0-0-0---0-0-0-0-0-0-0----------| x 9


---------------------------------------------------|
---------------------------------------------------|
---------------------------------------------------|
---------------------------------------------------|
-5-5-5-5-5/2-0-0-4-4-4-4-2-2-0-2-4-2-4---5-5-2-4-0-|
-0-0-0-0-0-0-0-0-0-0-0-0-0-0-0-0-0-0-0-0-0-0-0-0-0-|

thats it redundant but fun you can play around with it it is fun.

Milr tegit
Tap to rate this tab
 
# A B C D E F G H I J K L M N O P Q R S T U V W X Y Z