Guitaretab - guitar tabs
Song name
# A B C D E F G H I J K L M N O P Q R S T U V W X Y Z

Third Day - Keep On Shinin Verse tab

Back again! OK...figured out the verse and the chorus...the verse is just chords (at 
that's all I got) but the chorus is SO cool and SO easy! YES!!! :P ready? here's the verse:
[ Tab from: http://www.guitaretab.com/t/third-day/74590.html ]
    Am	   Dm	  G     C     G
E----5------5-----3-----0-----x---------|
B----5------6-----3-----1-----3---------|
G----5------7-----4-----0-----0---------|
D----7------7-----5-----2-----0---------|
A----7------5-----5-----3-----2---------|
E----5------5-----3-----0-----x---------|

play those chords in that progression. it sounds right to me......

k, now the chorus!

E---8-8-8-7-8-10-----13--13--1312\10-10-10---|
B----8-8-8-8----8/10---10--10--10----8--8--8--|  x2

well, I thought it was awesome! :P
Related for Keep On Shinin Verse tab