Song name
# A B C D E F G H I J K L M N O P Q R S T U V W X Y Z

Third Day - Till The Day I Die tab

Artist: Third Day
Album: Wire
Song: 'Till The Day I Die

It's not 100% correct, and I don't know the acoustic intro, but it's pretty good.

Intro (electric)

E----------------------------------|
B----------------------------------|
G----------------------------------|
D-2-4-4-2-4-4-2-4-4-2-4-2----------|
A----------------------------------|
E----------------------------------|

Riff 1 (x2)  in-between lines of verse

E-----------------------------------------------------------------|
B-----------------------------------------------------------------|
G---------------------------------------------------------4-4-3-2-|
D-2-4-4-2-4-4-2-4-4-2-4-2-----2-4-2-4-4-2-4-4-2-4-4-2-4-2---------|
A-------------------------4-4-------------------------------------|
E-----------------------------------------------------------------|

Riff 2 during chorus

E---------------------------------------------|
B---------------------------------------------|
G--7-----9-----7-----4--4--4--4--4--4--4--4---|
D--7--7--9--4--7--7--4--4--4--4--4--4--4--4---|
A--5--7--7--4--5--7--2--2--2--2--2--2--2--2---|
E-----5-----2-----5---------------------------|

E---------------------------------------------|
B---------------------------------------------|
G--7-----9-----7-----6--6--6--6--6--6--6--6---|
D--7--7--9--4--7--7--6--6--6--6--6--6--6--6---|
A--5--7--7--4--5--7--4--4--4--4--4--4--4--4---|
E-----5-----2-----5---------------------------|
Tap to rate this tab
 
# A B C D E F G H I J K L M N O P Q R S T U V W X Y Z