Song name
# A B C D E F G H I J K L M N O P Q R S T U V W X Y Z

Third Day - How Do You Know tab

Standard Tuning

h=hammer on
p=pull off
\=slide down
/=slide up
b= bend to note
r=release bend from note

  1st time                               
|------------------------------------------------|
|------------------------------------8-----------|
|--7h9p7\5-------7/9--9\7--7-7-5-7b8---8r7-------|
|------------7-----------------------------------|
|------------------------------------------------|
|------------------------------------------------|

  2nd time

|---------------------------------------------------|
|------------------------------------8-----8--8/10--|
|--7h9p7\5-------7/9--9\7--7-7-5-7b8---8r7----------|
|------------7--------------------------------------|
|---------------------------------------------------|
|---------------------------------------------------|
Tap to rate this tab
# A B C D E F G H I J K L M N O P Q R S T U V W X Y Z