Guitaretab - guitar tabs
Song name
# A B C D E F G H I J K L M N O P Q R S T U V W X Y Z

Third Day - Sing A Song tab

Artist: Third Day
Title: Sing a Song
Tuning: Standard


Gtr.1 - Electric
Gtr.2 - Electric


- Intro -
 Gtr.1 (dist.)
|--------------|
|--------------|
|-6~-----------|
|-7~-----------|
|-7~-----------|
|-5~-----------|
|Gtr.2 (dist.) | let ring
|--------------|
|--------------|
|-9~-----------|
|-x------------|
|-7~-----------|
|-5~-----------|

-Verse-
  Riff 1-------------------------------------------------End Riff 1
  |Gtr.1 (dist.)                                                  |
||v-------------------------------|-------------------------------v||
||--------------------------------|--------------------------------||
||--------------------------------|--------------------------------||
||---7--9r--9h11~--11h12p11p9\(7)-|---7--9r--9h11~--11h12p11~~~~~~~||
||--------------------------------|--------------------------------||
||-5------------------------------|-5------------------------------||
| Gtr.2 (dist.)                                                     | [3x]
||--------------------------------|--------------------------------||
||--------------------------------|--------------------------------||
||--------------------------------|-99999~-------------------------||
||-[mute Gtr.2 from last note]----|-xxxxx [let the last note ring] ||
||--------------------------------|-77777~-------------------------||
||--------------------------------|-55555~-------------------------||

- Chorus -
 Gtrs.1&2 [dist.]
|-----------------------------------------------------------------|
|-----------------------------------------------------------------|
|-7---------------6---------------9---------------6---------------|
|-7---------------7---------------9---------------7---------------|
|-5—--------------7---------------7---------------7---------------|
|-5---------------5---------------7---------------5---------------|
                                                  Gtr.2 only
|------------------------------------------------|----------------|
|------------------------------------------------|----------------|
|-7---------------11--------------9-------7------|6---------------|
|-7---------------11--------------9-------7------|7-- [let ring] -|
|-5---------------9---------------7-------5------|7--- [through] -|
|-5---------------9---------------7-------5------|5---------------|

- Verse –
Riff 1
[ Tab from: http://www.guitaretab.com/t/third-day/93095.html ]
- Verse 2 –
 Gtr.1 (clean)
|-5------------777---------------|-5------------777---------------|
|-5------------777---------------|-5------------777---------------|
|-6------------777---------------|-6------------777---------------|
|-7------------777---------------|-7------------777---------------|
|-7------------------------------|-7------------------------------|
|-5------------------------------|-5------------------------------|
|Gtr.2 (dist.)                                                    | [4x]
|--------------------------------|--------------------------------|
|--------------------------------|--------------------------------|
|--------------------------------|-99999~-------------------------|
|--------------------------------|-xxxxx [let the last note ring] |
|--------------------------------|-77777~-------------------------|
|--------------------------------|-55555~-------------------------|

- Chorus -

- Solo – (dist.) (I’m guessing and improvising a lot)
  |--------------Gtr.1 plays Verse--------------||--------------Gtr.2 plays nothing--------------|
  |---------------- Gtr.2 plays ----------------||----------------- Gtr.1 plays -----------------|
|-------------------------------------------------------------------------------------------------|
|-8~r7~~-8~r7~~-7br7\5-8/10101010\8-8/10101010\5-8h10p8---------8h10p8---------8h10p8-------------|
|-9~r7~~-9~r7~~-7br7\5-9/11111111\9-9/11111111\5-9-----h9p7-----9-----h9p7-----9-----h9p7---------|
|----------------------------------------------------------h10p7----------h10p7----------h10p7-7~-|
|-------------------------------------------------------------------------------------------------|
|-------------------------------------------------------------------------------------------------|
                                                 |--------------- Roll pick this ----------------|
- Break -

- Verse –
Riff 1

-Chorus 3-
 Gtrs.1&2
|-----------------------------------------------------------------|
|-----------------------------------------------------------------|
|-7---------------6---------------9---------------6---------------|
|-7---------------7---------------9---------------7---------------|
|-5—--------------7---------------7---------------7---------------|
|-5---------------5---------------7---------------5---------------|

|-----------------------------------------------------------------|
|-----------------------------------------------------------------|
|-7---------------11--------------9-------7-------6---------------|
|-7---------------11--------------9-------7-------7---------------|
|-5—--------------9---------------7-------5-------7---------------|
|-5---------------9---------------7-------5-------5---------------|

|-----------------------------------------------------------------|
|-----------------------------------------------------------------|
|-7---------------6---------------9---------------6---------------|
|-7---------------7---------------9---------------7---------------|
|-5—--------------7---------------7---------------7---------------|
|-5---------------5---------------7---------------5---------------|

|-----------------------------------------------------------------|
|-----------------------------------------------------------------|
|-7---------------11--------------9-------7-----------------------|
|-7---------------11--------------9-------7-----------------------|
|-5---------------9---------------7-------5-----------------------|
|-5---------------9---------------7-------5-----------------------|

- Verse –
Riff 1

- Break -

(Holy, Holy,) Part
|-----------------------------------------------------------------|
|-----------------------------------------------------------------|
|-6-6-6-6-6-6-6-6-11111111111111119-9-9-9-9-9-9-9-7-7-7-7-7-7-7-7-|
|-7-7-7-7-7-7-7-7-11111111111111119-9-9-9-9-9-9-9-7-7-7-7-7-7-7-7-|
|-7-7-7-7-7-7-7-7-9-9-9-9-9-9-9-9-7-7-7-7-7-7-7-7-5-5-5-5-5-5-5-5-|
|-5-5-5-5-5-5-5-5-9-9-9-9-9-9-9-9-7-7-7-7-7-7-7-7-5-5-5-5-5-5-5-5-|
with some Riff 1 
[play until the end (I guess; I can’t hear much difference at the end of the song)]
Related for Sing A Song tab
Advertisement will be closed in 10 seconds