Song name
# A B C D E F G H I J K L M N O P Q R S T U V W X Y Z

Third Day - Cant Take The Pain tab

Can't Take The Pain
Third Day


h=hammer
p=pull-off
^=up-stroke

Intro: Light Acoustic
                                  ^
e---3--------------------3--------3------3--------------------3------|
b---3--------------------3--------3------3--------------------3------|
g--------0-----0------------------------------0-----0----------------|
d--------2h3---2p0----------------------------2h3---2p0--------------|
a---x--------------------x---------------x--------------------x------|
E---3----------------3---3-----------3---3----------------3---3------|

Repeat all the way through the first verse

Chorus:

                ^               ^                                 ^
e---3---3-----3--3---3------3-3--3--3----------3----3---3-------3--3---3----|
b---3---3-----3--3---3------3-3--3--3----------3----3---3-------3--3---3----|
g---------------------------2-2---------------------------------------------|
d---x---x-----x------------------2--2---------------x---x-------x-----------|
a---3---3-----3--x---x-----------2--2----0-----x----3---3-------3--x---x----|
E----------------3---3------2-2----------2-3---3-------------------3---3----|

     ^
e--3-3--3---3-------3----3-----|
b--3-3--3---3-------3----3-----|
g--2-2-------------------------|
d-------2---2-------x----------|
a-------2---2--2-3--3----x-----|
E--2-2-------------------3-----|


Verse again

Chorus

Bridge:

e--3--3---------3---3-----3--3---------3----|
b--3--3---------3---3-----3--3---------3----|
g-------------------------------------------|
d--2--2-------------------2--2--------------|
a--2--2---------x---x-----2--2---------x----|
E----------2-3--3---3-------------2-3--3----|

over and over again for the bridge than to a C and a D then back to the verse

Verse

Chorus

Chorus

Outro is the same light acoustic riff as in the intro
Tap to rate this tab
# A B C D E F G H I J K L M N O P Q R S T U V W X Y Z