Guitaretab - guitar tabs
Song name
# A B C D E F G H I J K L M N O P Q R S T U V W X Y Z

Third Eye Blind - Second Born tab

Song:Second Born
Album:Ursa Major
Artist:Third Eye Blind
Date Tabbed:June,2008
Guitar Tabber:Ryan Manongdo/18/Vancouver,Ca
              rhyezkie@gmail.com(gtalk)
              no_falter0x@yahoo.com(YM,friendster,facebook&myspace)

For any comments,questions or suggestions,just post a comment or PM me.Pilipino Rules!!

Gtr.Legend:
~ - let it ring

Gtr.Tuning:Standard(Normal)

Intro:
e|-0-0-0---0-0-3---3-3-3---2-2-2---|
B|-0-0-0---1-1-1---3-3-3---3-3-3---|
G|-0-0-0---0-0-0---0-0-0---2-2-2---| Listen carefully to the song 
D|-2-2-2---2-2-2---0-0-0---0-0-0---| to get the strumming pattern
A|-2-2-----3-3-----2-2-------------|
E|-0-0-------------3-3-------------|

Verse 1:
Play Intro

Chorus:
e|-0000-0000-00----0000-0000-0-2---|
B|-1111-1111-00----1111-1111-0-3---|
G|-0000-2222-00----0000-2222-0-2---|
D|-2222-2222-22----2222-2222-2-0---|
A|-3333-0000-22----3333-0000-2-----|
E|-----------00--------------0-----|

Verse 2:
Play Verse 1
[ Tab from: http://www.guitaretab.com/t/third-eye-blind/110122.html ]
Chorus:
e|-0000-0000-00----0000-0000-0-2----0000-0000-00---0000-0000-0~---|
B|-1111-1111-00----1111-1111-0-3----1111-1111-00---1111-1111-0~---|
G|-0000-2222-00----0000-2222-0-2----0000-2222-00---0000-2222-0~---|
D|-2222-2222-22----2222-2222-2-0----2222-2222-22---2222-2222-2~---|
A|-3333-0000-22----3333-0000-2------3333-0000-22---3333-0000-2~---|
E|-----------00--------------0----------------00-------------0~---|

Bridge:
e|-------0-------0---------0-------0-------3-------3-------2-------2---|
B|---------0---0---------1---1---1-------3---3---3-------3---3---3-----|
G|-----0-----0-----------------0---------------0---------------2-------| 3x
D|-----------------------------------------------------0---------------|
A|-2~---------------0-3------------------------------------------------|
E|-------------------------------------3-------------------------------|

Verse 3:
Play Verse 1

Repeat Chorus:

Last Chord:
e|-0~---|
B|-0~---|
G|-0~---|
D|-2~---|
A|-2~---|
E|-0~---|

End...

Second Burn Lyrics:Not Availbale yet
Related for Second Born tab
Advertisement will be closed in 10 seconds