Song name
# A B C D E F G H I J K L M N O P Q R S T U V W X Y Z

Third Eye Blind - Non Dairy Creamer tab

Intro:
E------4-------4-------4-------4h5p4p0---|
B----5---5---0---0---5---5---5-----------|
G--4-------2-------6-------4-------------|
D----------------------------------------|
A----------------------------------------|
E----------------------------------------|

Verse: occasionally the last hammer and pull off is substituted for 
       the 4h5p4p0 from the Intro

E------2h4p2p0-----2-0-------0-----2h4p2p0--|
B----5-----------0-------0-2-----5----------|
G--4-----------2-------2-------4------------|
D-------------------------------------------|
A-------------------------------------------|
E-------------------------------------------|

Light Chorus:
E--9--9--9---4-4--4-4-4-4h5-5-5-4--|--9--9--9---4-4--4~--|
B--10-10-10--5-5--5-5-5-5---5-5-5--|--10-10-10--5-5--5~--|
G--9--9--9---6-6--4-4-4-4---4-4-4--|--9--9--9---6-6--4~--|
D----------------------------------|---------------------|
A----------------------------------|---------------------|
E----------------------------------|---------------------|

Bridge:
E------------------------|----------------------|
B------------------------|----------------------|
G--2-2--4-4--6-6--9-9-9--|--2-2--4-4--6-6--4-4--|
D--2-2--4-4--6-6--9-9-9--|--2-2--4-4--6-6--4-4--|
A--0-0--2-2--4-4--7-0-7--|--0-0--2-2--4-4--2-2--|
E------------------------|----------------------|

Continued Bridge: 1x
E----------------------------------------------------------------------|
B----------------------------------------------------------------------|
G--2-2-2-2-2-2-2-2--9-9-9-9-9-9-9-9--4-4-4-4-4-4-4-4--6-6-6-6-4-4-4-4--|
D--2-2-2-2-2-2-2-2--9-9-9-9-9-9-9-9--4-4-4-4-4-4-4-4--6-6-6-6-4-4-4-4--|
A--0-0-0-0-0-0-0-0--7-7-7-7-7-7-7-7--2-2-2-2-2-2-2-2--4-4-4-4-2-2-2-2--|
E----------------------------------------------------------------------|

Distorted Chorus: 4x
E---------------------|
B---------------------|
G--2-2--6-6--9-9-9-9--|
D--2-2--6-6--9-9-9-9--|
A--0-0--4-4--7-7-7-7--|
E---------------------|

Fade Away: 6x It starts on the E5 of the Chorus, so halfway through
           the last measure of the chorus.
E----------------------|
B----------------------|
G--9-9--6-6--4-4--2-2--|
D--9-9--6-6--4-4--2-2--|
A--7-7--4-4--2-2--0-0--|
E----------------------|

The end of the song is basically the bass playing the verse with the guitar
 spiking and soloing all over. Lots of rakes. I'm not going to take the 
time figuring it out. It doesn't really matter that much because you can 
just play around in E major and figure a lot of it out or just improvise. Peace!


Tap to rate this tab
# A B C D E F G H I J K L M N O P Q R S T U V W X Y Z