Song name
# A B C D E F G H I J K L M N O P Q R S T U V W X Y Z

Third Eye Blind - Blue tab

============================================================================
Third Eye Blind - Blue
============================================================================
1. Anything
2. Wounded
3. 10 Days Late
4. Never Let You Go
5. Deep Inide Of You
6. 1000 Julys
7. An Ode To Maybe
8. Red Summer Sun
9. Camouflage
10. Farther
11. Darkness
12. Darwin
13. Slow-Motion
============================================================================
Year: 1999
Label: Elektra Records
============================================================================
Put together by Asa Gaston
============================================================================
1. Anything
============================================================================

**Standard Tuning**

Chords used:
B - x20033 (This is a G with the bottom string muted)
C - x32033
Am - x02210
G - 320033

Intro x2:
    Am        C
e---------0----------3------|
B------1---------3----------|
G---------------------------|
D---2-----------------------|
A-------------3-------------|
E---------------------------|

Anything for you
Turn my castles blue

Verse - w/distortion:
Am                    *fill*
Turn my bones to sand

C
Just to see you

*fill*
e----------------|
B---5--5h6---5---|
G----------------|
D----------------|
A----------------|
E----------------|

Chorus:
B
I'd give you anything

C
I'd give you anything

B                     C
I'd give you anything

Am   C

Verse:
Am
Jackie-O with the top down open

C
All the words to whats unspoken

Am                                    C
Put together everything thats broken

Chorus:
Just to see you

B
I'd give you anything

C
I'd give you anything

B
I'd give you anything

C
I'd give you anything

G  (Here Kevin slides his pick from about the 5th to 12th frets on top
of the low E string.  This is a cool effect with a crunchy dist.)

Verse:
Am
Jackie-O with the top down open

C
A king's horse for what's been broken

Am                                    C
I'll bring back even what's unspoken

Chorus:
Just to see you

B
I'll give you anything

C
I'll give you anything

B                      C
I'll give you anything

B   C

Heres the next part, I don't know what to call it!
e------------------------------------|
B------------------------------------|
G--0-0-0-0-0-0-0-0--0-0-0-0-0-0-0-0--|
D--0-0-0-0-0-0-0-0--2-2-2-2-2-2-2-2--|
A--2-2-2-2-2-2-2-2--3-3-3-3-3-3-3-3--|
E--x-x-x-x-x-x-x-x--x-x-x-x-x-x-x-x--|

B  C  Am (hold out Am)

Outro - I'm not absolutely sure here but this sounds ok:
e---0-------------3-----8---------15---|
B-------------3---3-----8----8----15---|
G------5p4h5------0-----9----9----12---|
D-----------------0---------10---------|
A--------------------------------------|
E--------------------------------------|

============================================================================
2. Wounded
============================================================================

*OPEN TUNING*
- D - A - D - E - A - C# -

Notations:
~ = Harmonic
/ = Slide up
\ = Slide down
^ = Half bend

Intro (clean):
C#------------------------~5----~5--------------~5------------|
A----------~5---~5-----~5----~5----~5--~5----~5----~5---~5----|
E--~5---~5---------~5---------------------~5------------------|
D-------------------------------------------------------------|
A--~5---------------------------------------------------------|
D-------------------------------------------------------------|

C#---------------------~5--------------------------~5-----|
A---------~5--~5----~5----~5---------~5--~5-----~5----~5--|
E--~5--~5--------~5-----------~5--~5--------~5------------|
D---------------------------------------------------------|
A--~5-----------------------------------------------------|
D---------------------------------------------------------|

Play this 3x (clean):
C#---------------0--0-----5p0--0--|
A-----0--5p0--0--------0----------|
E---------------------------------|
D---------------------------------|
A--0------------------------------|
D---------------------------------|

Play this the 4th time through:
C#--------------------------------|
A------0--5p0--0--7-----7--0--~7--|
E--------------------5------------|
D---------------------------------|
A---0-----------------------------|
D---------------------------------|

Verse (clean):
C#------12-12-12-13-12--------0--0--0--0----0-0-0-0-0-0-0-0--|
A-------0--0--0--0--0---------0--0--0--0----0-0-0-0-0-0-0-0--|
E-------10-10-10-10-10--------0--0--0--0----5-5-5-5-5-5-5-5--|
D-------0--0--0--0--0---11-11-11-11-11-11---7-7-7-7-7-7-7-7--|
A--0-0---(let ring)-----x--x--x--x--x--x----0-0-0-0-0-0-0-0--|
D--0-0---(let ring)-----9--9--9--9--9--9----7-7-7-7-7-7-7-7--|

The guy who put his hands on you
Has got nothing to do with me
And the bruises that you feel will heal
And I hope you come around
Cuz we're missing you

You used to speak so easy
Now you're afraid to talk to me
It's like walking with the wounded

Mid-Verse Riff x1 (clean):
C#-0-0-0-0-0-0---0-0-0-0-0-0---0--0--0--0--0--0----0-0-0-0-0-0--|
A--7-7-7-7-7-7---0-0-0-0-0-0---0--0--0--0--0--0----0-0-0-0-0-0--|
E--0-0-0-0-0-0---7-7-7-7-7-7---9--9--9--9--9--9----5-5-5-5-5-5--|
D--7-7-7-7-7-7---9-9-9-9-9-9---11-11-11-11-11-11---7-7-7-7-7-7--|
A--0-0-0-0-0-0---x-x-x-x-x-x---x--x--x--x--x--x----0-0-0-0-0-0--|
D--7-7-7-7-7-7---9-9-9-9-9-9---11-11-11-11-11-11---7-7-7-7-7-7--|

Carrying that weight way too far
Concrete pulled ya down so hard
Out there with the wounded
We're missing you

Verse 2 (play riff 1x):
Well I never claimed to understand what happens after dark
But my fingers catch those sparks at the thought of
Touching you
When you're wounded

Pre-Chorus riff x1 (with distortion):
C#--0--0-0--0--0--0---0-0-0-0--0-0-0-0--|
A---0--0-0--0--0--0---0-0-0-0--0-0-0-0--|
E---x--x/x--x--x--x---0-0-0-0--0-0-0-0--|
D---9--7/9--12-12-12--7-7-7-7--7-7-7-7--|
A---x--x/x--x--x--x---0-0-0-0--0-0-0-0--|
D---9--7/9--12-12-12--7-7-7-7--7-7-7-7--|

C#--0-0-0--x--0-0-0-0-0--x--0-0-0-0-0--0-0-0-0-0--|
A---0-0-0--x--0-0-0-0-0--x--0-0-0-0-0--0-0-0-0-0--|
E---3-3-3--x--7-7-7-7-7--x--0-0-0-0-0--0-0-0-0-0--|
D---5-5-5--x--9-9-9-9-9--x--7-7-7-7-7--7-7-7-7-7--|
A---x-x-x--x--x-x-x-x-x--x--0-0-0-0-0--0-0-0-0-0--|
D---5-5-5--x--9-9-9-9-9--x--7-7-7-7-7--7-7-7-7-7--|

Stephan screams here w/echo behind it and then goes right into the
chorus, seen here and played x4:

C#--0-0-0-0-0-0---x-x-x-x-6-5-------0-0-0-0-0-0-0-0-0-0---------|
A---7-7-7-7-9-7---5-5-5-5-5-5-------0-0-0-0-0-0-0-0-0-0---------|
E---0-0-0-0-0-0---0-0-0-0-0-0-------0-0-0-0-0-0-0-0-0-0---------|
D---7-7-7-7-7-7---5-5-5-5-5-5-------0-0-0-0-0h7-7-7-7-7--5-5-5--|
A---0-0-0-0-0-0---x-x-x-x-x-x---0-0-0-0-0-0-0-0-0-0-0-0--5-5-5--|
D---7-7-7-7-7-7---5-5-5-5-5-5---0-0-0-0-0-0-0h7-7-7-7-7--5-5-5--|

Well let me break it down till I force the issue
We miss your face, ya know I wish you
Would come back down to the Dalva Bar, you tell em
"That's just my battle scar!"
I wanna kiss you, and knock em down like we used to
You're the marigold
Till you're walkin down shakin that a** again
And then you walk on baby walk on walk on (on and on)
You're an angel in the pit with her hands in the air
And we're missing you

Verse x3 (clean):
Now it's fall, and your shoulders get tighter
Nervous flicks on the lighter, boots
Your pissed off poets, your womens groups
And the friends with you, we should have known this fool
Well I guess we missed the mark
Still my fingers catch those sparks at the thought of
Touching you
Now you're wounded

*Play Pre-Chorus riff here x1 (with distortion)*

*Then, Play Chorus riff here x6 (with distortion)*

Lemme break it down till i force the issue
You never come around and you know we miss you
Well nobody took your pride away
That's something people say
Back down the bully to the back of the bus
Cause it's time for them to be scared of us
Till you're yellin, how we living cause you got the ball
Then you rock on baby rock on you rock on (on and on)
You're a summertime hottie with her socks in the air
Screamin, "I don't care baby, I don't care! NOOOO!"

You say you don't know, You say you can't grow
(You're the marigold)
All I know is we're missing you, you   x2

Pre-Outro solo (with distortion):
C#----------^11-^11-^11-^11----------13---13/17--^17---17/12--10-|
A-----------------------------14p12-------------(up &------------|
E---12--12---------------------------------------down)-----------|
D----------------------------------------------------------------|
A----------------------------------------------------------------|
D----------------------------------------------------------------|

End chords x4 (with distortion):
C#--0-0-0-0--x--0-0-0--|
A---7-7-7-7--x--0-0-0--|
E---0-0-0-0--x--3-3-3--|
D---7-7-7-7--x--5-5-5--|
A---0-0-0-0--x--x-x-x--|
D---7-7-7-7--x--5-5-5--|

Subtle Solo during end chords (with distortion):
C#--------12----------12-----------12-----------12------------|
A---12-14-----10-12-14----10-12-14-----10-12-14----14--10-12--|
E-------------------------------------------------------------|
D-------------------------------------------------------------|
A-------------------------------------------------------------|
D-------------------------------------------------------------|

End:
Show up
Show up wounded
Show up
Show up wounded

Outro chords (with distortion):
C#-0-0-0---0-0-0---0-0-0---0-0-0--|
A--7-7-7---7-7-7---7-7-7---7-7-7--|
E--0-0-0---0-0-0---0-0-0---0-0-0--|
D--7-7-7---7-7-7---7-7-7---7-7-7--|
A--0-0-0---0-0-0---0-0-0---0-0-0--|
D--7-7-7---7-7-7---7-7-7---7-7-7--|

Outro riff first 3 times (clean):
C#------------0--0----5p0--0--|
A-----5p0--0--------0---------|
E-----------------------------|
D-----------------------------|
A--0--------------------------|
D-----------------------------|

4th time (clean):
C#----------------0--|
A------0--5p0--0-----|
E--------------------|
D--------------------|
A---0----------------|
D--------------------|

Ending chord (clean, a chorus sounds cool):
C#--~12---|
A---~12---|
E---~12---|
D---~12---|
A---~12---|
D---~12---|
 (upstroke)

============================================================================
3. 10 Days Late
============================================================================

tab: Intro
_____
Bass plays F
Then Cadd9  C  x2

Verse 1
______

Bass plays F
Click your heals and feel you come for me..Care free, she's got
something big tell me.
Then Cadd9 C x2
At the ocean, talk back to the ocean
F
There's no simple way to let you know..Funny how she always cried out:
"Daddy"
Then Cadd9 C x2
I got a big surprise, She said:

Chorus 1
________
F                                 C             Bb      F
"I 'm in trouble now and It cannot wait"..She's 10 days late.
            Bb         F
And boy your life got complicated
             D                C                     Bb   F      Bb      F
Well I can't wait to see this through She's 10 days late      10 days
late.
            10/
X X X   10/     -
X X X   8/       -x4
X X X   x       -
Mute    F
Verse 2
_______
F
Low ride bicycles go cruising by, I laugh, I don't even know why.
Cadd9 C  x2
Talk back at the ocean.
F
Consequence and ozone catch a glow, Oh No, Baby
oh no
Cadd9 C  x2

Chorus
_____

(Choir)
______
Stay on an F Chord

Time has come for you to choose
Baby daddies keeps your boo
Many blessings come to you
Baby daddy keep your boo

Verse 3
_______
F
Your eyes look to me for what to do..I can't lie, I don't know!
Cadd9   C x2
F
No one's laughing now.. what do I say? You walk away, No don't go
Cadd9   C  x2
At the ocean, Talk back to the ocean

Chorus
______
And I'm never going to fade it, I guess you'll always be knowing
you..Knowing you.

============================================================================
4. Never Let You
============================================================================

e----------------------------------------------------|
B|---------------------------------------------------|
G|---9--------------9--------------------------------|
D|---7--9--7-7------7--9--7-7-7----------------------|
A|---7--7--5-5------7--7--5-5-5----------------------|
E|------7--5-5---------7--5-5-5----------------------|

e|----------------------------------|
B|----------------------------------|
G|--11/13-9---------11/13-9---------|
D|----------11-11-----------11-11-9-|
A|----------------------------------|
E|----------------------------------|

============================================================================
5. Deep Inside Of You
============================================================================

PLAY THESE 3 PARTS TOGETHER WEN NEEDED:

acoustic guitar(verse):let the bass line and chords ring

e---3-----3-3-3---3-----3-3-3---|
b---3-----3-3-3---3-----3-3-3---|
g---0-------------0-------------|
d---0-------------2-------------|
a---2-------------2---3---------|
E---3---2---------0-------------|

2nd acoustic or light electric (verse): play this whole part twice when
u play the 1st acoustic guitar part once...

e---3-----3-----0-----0-----|
b----3-----3-----3-----3----|
g-----0-----0-----0-----0---|
d---------------------------|
a---------------------------|
E---------------------------|

light electric (verse): play 2ce when u play the first acoustic guitar
once

e-----5-7-5-----5-7-----5-7-5-7-8-7---|
b---8---------8-------8---------------|
g-------------------------------------|
d-------------------------------------|
a-------------------------------------|
E-------------------------------------|


lyrics for 1st verse: when we met light was shed thoughts free flow u
said uv got something deep inside of you...A wind chime voice sound,
sway your hips round rings true, it goes deep inside of you...these
secret garden beams change my life so it seems...Fall breeze blows
outside i don't break stride, my thoughts are warm, they go deep inside
of you

the second verse: Friends say iv changed i dont listen cause i live to
be deep inside of you Slide of her dress, shouts in darkness, i'm so
alive, I'm deep inside of you...you said boy make girl feel good but
still deep inside...still...

CHORUS (kind of):

acoustic or light electric maybe: here are the chords, listen for the
rhythm...

e---3---3---3---3---3---3---3---|
b---3---1---0---1---3---1---3---|
g---0---0---0---0---2---0---0---|   GO BACK TO VERSE
d---0---2---0---2---0---2---0---|
a---2---3---2---3---0---3---2---|
E---3---0---3---0---0---0---3---|

electric verse( or if you can, u can do this part with those chords up
there on 1 guitar and play this 1nce per every 2 chords up there):

e---3-3-2-3-2---------5---3-3-2-3-2-------|
b-------------3-3-3-----------------3-3-3-|
g-----------------------------------------|
d-----------------------------------------|
a-----------------------------------------|
E-----------------------------------------|

lyrics for "chorus": and i never felt alone till i met you
2nd time around:  and i never felt alone till i met you...and im
alright on my own...then i met you...and i'd know wat to do if i just
knew wats coming

go back to the verse again (2 the second verse)...then go back to the
"chorus" (2 the second time around)...now heres another part...

REPEAT BOTH THESE PARTS UNTIL YOU GET BACK TO THE VERSE

heavier electric:

e---3---3---3---3---3---|
b---3---3---1---3---3---|
g---0---2---0---2---0---|   and so on.....
d---0---0---2---0---0---|
a---2---0---3---0---2---|
E---3-------0-------3---|

and in the background...

heavier electric:

e----0-----0-----|
b---3-3---3-3----|
g------0-----0---|    and so on.....
d----------------|
a----------------|
E----------------|

lyrics for this new part:i would change myself if i could...i would
walk with my own people if i could find them...and i would say that im
sorry to you, im sorry to you...i dont want to call you, but then i
wanna call you...cause i dont want to crush you, but i feel like
crushing you...and its true i took for granted you were with me...i
breathe by your looks and you look right through me...and we were broke
and didn't know it...

lyrics for final verse: somethings gone you withdraw and im not strong
like before, i was deep inside of you...i can go nowhere i burn candles
and stare at a ghost, deep inside of you...and some great need in me,
starts to bleed, i ve lost my self there's nothing left, its all gone,
deep inside of you.....

and the final chord is

e---3---------------|
b---1-let ring--0---|
g---0---------------|
d---0---------------|
a---2---------------|
E---3---------------|

============================================================================
6. 1000 Julys
============================================================================

tuning: normal, EADgbe

beginning (and at some parts through the song):

----------------------------------------------------|
----------------------------------------------------|
----------------------------------------------------|
-7--9--7--9--7--x-x-x-x--7-9-7-9--4-5-7-9-----------|
-7--9--7--9--7--x-x-x-x--7-9-7-9--4-5-7-9-----------|
----------------------------------------------------|


verse:

-----------------------------|-----------7-8-10-10--|
-----------------------------|----------------------|
-----------------------------|----------------------|
-10----9----5----4----5------|--10--9---------------|
-10----9----5----4----5------|--10--9---------------|
-8-----7----3----2----3------|--8---7---------------|

chorus:

---------------------------------------|
---------------------------------------|
---------------------------------------|
-7--7--7--7--7-----9--9--9--9--9-------|
-7--7--7--7--7-----9--9--9--9--9-------|
-5--5--5--5--5-----7--7--7--7--7-------|

============================================================================
7. An Ode To Maybe
============================================================================

standard tuning
this is a pretty easy song and sound unreal with bass and a good
drummer.
it needs a bit of distortion to sound good.

intro:

e-------------------------------------------------|
B------5--5--5----------------------3-------3-----|
G------4--5--5----------------------5--5-----5----|
D------5--5--5----X-X--3-3-3--------5----5-----5--|
A-----------------X-X--3-3-3--------3-------------|
E-----------------X-X--1-1-1--X3----3-------------|


chorus:  just strum like an acoustic

      Fmaj     Cmaj      A5    G5    F5
e-------1-------3---------------------------------|
B-------1-------3---------------------------------|
G-------2-------5---------------------------------|
D-------3-------5---------7-----5-----3-----------|
A-------3-------3---------7-----5-----3-----------|
E-------1-------3---------5-----3-----1-----------|

Then he plays a little riff with the chorus

riff1
e-----17------17--15------------------------------|
B---------13-----------12--13--15--17-------------|
G-------------------------------------------------|
D-------------------------------------------------|
A-------------------------------------------------|
E-------------------------------------------------|

riff2
e-------------3h5p3~------------3h5p3~------------|
B--------------------------------------6-5~-3~-1~-|
G-----4--5-5------------4--5-5--------------------|
D-------------------------------------------------|
A-------------------------------------------------|
E-------------------------------------------------|

then comes a pritty kewl solo

e----7/8\7-5-7----------5-------------------------|
B-------------------6-8---6--3~-------------------|
G-------------------------------------------------|

e----7/8\7-5-7----------5--12~--------------------|
B-------------------6-8---------------------------|
G-------------------------------------------------|

e----7/8\7-5-7----------5-------------------------|
B-------------------6-8---6--3~---6-5-3-1-1-1-1~--|
G-------------------------------------------------|

============================================================================
8. Red Summer Sun
============================================================================

Open D Tuning:
D A D F# A D

Intro:

-|--0-----0-----0-----0-----0-----0-----0-----------------------------|
-|--0-----0-----0-----0-----0-----0-----0-----------------------------|
-|-13----13----12----13----13----13----12-----------------------------|
-|-12----12----12----12----12----12----12-----------------------------|
-|--x----10-----x----10-----x----10-----x-----------------------------|
-|-10----------12----------10----------12-----------------------------|

Verse:
(w/wah pedal)

-|--0---0---0---0---0--0--0--0----0--0--0--0---0---0---0---0----------|
-|--0---0---0---0---0--0--0--0----0--0--0--0---0---0---0---0----------|
-|-13--13--13--13--13-13-13-13---12-12-12-12--12--12--12--12----------|
-|-12--12--12--12--12-12-12-12---12-12-12-12--12--12--12--12----------|
-|--x---x---x---x---x--x--x--x----x--x--x--x---x---x---x---x----------|
-|-10--10--10--10--10-10-10-10---12-12-12-12--12--12--12--12----------|

-------------------------0--0--0----------------------0--0--0--0------|
-------------------------0--0--0----------------------0--0--0--0------|
-10h12-13--13-12p10-----13-13-13--10-10-10-10--------12-12-12-12------|
--------------------12--12-12-12--------------12-12--12-12-12-12------|
-------------------------x--x--x----------------------x--x--x--x------|
------------------------10-10-10---------------------12-12-12-12------|

--0---0---0---0--|----------------------------------------------------|
--0---0---0---0--|----------------------------------------------------|
-12--12--12--12--|----------------------------------------------------|
-12--12--12--12--|----------------------------------------------------|
--x---x---x---x--|----------------------------------------------------|
-12--12--12--12--|----------------------------------------------------|

Prechorus buildup:

-|---------------0------------------0-|-------------------------------|
-|---------------0------------------0-|-------------------------------|
-|---------5-5-5-5--5-5-5-5-5-5-5-5-5-|-------------------------------|
-|-5-5-5-5-5-5-5-5--5-5-5-5-5-5-5-5-5-|-x4----------------------------|
-|-x-x-x-x-x-x-x-x--x-x-x-x-x-x-x-x-x-|-------------------------------|
-|-5-5-5-5-5-5-5-5--5-5-5-5-5-5-5-5-5-|-------------------------------|

Chorus:

-|-10--10----10----10----10----10----10----10----10---------------------|
-|-10--14p10-14p10-14p10-14p10-14p10-14p10-14p10-14p10------------------|
-|-10--13p10-13p10-13p10-13p10-13p10-13p10-13p10-13p10------------------|
-|-10--12p10-12p10-12p10-12p10-12p10-12p10-12p10-12p10------------------|
-|-10--10----10----10----10----10----10----10----10---------------------|
-|-10--10----10----10----10----10----10----10----10---------------------|

----0------0------0------0-----|--------------------------------------|
----0-x-x--0-x-x--0-x-x--0-x-x-|--------------------------------------|
---12-x-x-12-x-x-12-x-x-12-x-x-|--------------------------------------|
---12-x-x-12-x-x-12-x-x-12-x-x-|-x4-----------------------------------|
----x-x-x--x-x-x--x-x-x--x-x-x-|--------------------------------------|
---12-----12-----12-----12-----|--------------------------------------|

I'll take on anyone ....

-|--0---0---0---0-0-0-0--0--0----0--0--0--0-|----|-0-|----------------|
-|--0---0---0---0-0-0-0--0--0----0--0--0--0-|----|-0-|----------------|
-|-12--10---8---8-8-8-8-10-12---12-12-12-12-|----|-5-|----------------|
-|-12--10---9---9-9-9-9-10-12---12-12-12-12-|-x3-|-5-|----------------|
-|--x---x---x---x-x-x-x--x--x----x--x--x--x-|----|-x-|----------------|
-|-12--10---9---9-9-9-9-10-12---12-12-12-12-|----|-5-|----------------|

Outro:

-|--0----0--|-----0---------------0----||---0-----------0---12--||-----|
-|--0----0--|----14---14---------12----||--14----14----12-------||-----|
-|-13---12--|----13-------13------0----||--13-----------0-------||-----|
-|-12---12--|----12--------------12----||--12----------12-------||-x2--|
-|--x----x--|-----x---------------0----||---x-----------0-------||-----|
-|-10---12--|----10--------------12----||--10----------12-------||-----|

repeat chords

--0------------------------0---12---|---------------------------------|
-14--14-------------------12--------|---------------------------------|
-13------10-12-13--12-10---0--------|---------------------------------|
-12-----------------------12--------|---------------------------------|
--x------------------------0--------|---------------------------------|
-10-----------------------12--------|---------------------------------|

============================================================================
9. Camouflage
============================================================================

Open Asus2 Tuning:

EAEABE

Intro/Verse:

-|-3-----3-------3-----3-------2-----2-------2-----2---------|
-|---3-----3-------3-----3-------3-----3-------3-----3-------|
-|-----0-------0-----0-------0-----0-------0-----0-----------|
-|-----------------------------------------------------------|
-|-----------------------------------------------------------|
-|-----------------------------------------------------------|


----2-----2-------2-----2-------0-----0-------0-----0-5-5p0-|---------|
------2-----2-------2-----2-------0-----0-------0-----------|---------|
--0-----0-------0-----0-------0-----0-------0-----0---------|---------|
------------------------------------------------------------|---------|
------------------------------------------------------------|---------|
------------------------------------------------------------|---------|

Chorus:

-|------------------|--0--0--0--0--0-0-0-0--0-0-0-0--0-0-0-0----------|
-|------------------|--0--0--0--0--0-0-0-0--0-0-0-0--0-0-0-0----------|
-|------------------|-10-10-10-10--9-9-9-9--4-4-4-4--7-7-7-7----------|
-|------------------|--0--0--0--0--0-0-0-0--0-0-0-0--0-0-0-0----------|
-|------------------|-10-10-10-10--9-9-9-9--4-4-4-4--7-7-7-7----------|
-|-5-7-9--9-7-5-7-0-|-------------------------------------------------|


--0--0--0--0-0-0-0-0-0-|----------------------------------------------|
--0--0--0--0-0-0-0-0-0-|----------------------------------------------|
--0--0--0--0-0-0-0-0-0-|-----10-9--7-9--5/7--7-5-4--------------------|
--0--0--0--0-0-0-0-0-0-|-x3---0-0--0-0--0-0--0-0-0--------------------|
--0--0--0--0-0-0-0-0-0-|-----10-9--7-9--5/7--7-5-4--------------------|
--0--0--0--0-0-0-0-0-0-|----------------------------------------------|

After last chorus:
(starts at 3:24)

-|--0--0--0--0--0-0-0-0--0-0-0-0--0-0-0-0---0---0---0--0--0--0--0-|----|
-|--8--8--8--8--7-7-7-7--2-2-2-2--5-5-5-5---0---0---5--5--5--5--5-|----|
-|-10-10-10-10--9-9-9-9--4-4-4-4--7-7-7-7---0---0---0--0--0--0--0-|----|
-|--0--0--0--0--0-0-0-0--0-0-0-0--0-0-0-0---0---0---5--5--5--5--5-|-x6-|
-|-10-10-10-10--9-9-9-9--4-4-4-4--7-7-7-7---0---0---0--0--0--0--0-|----|
-|------------------------------------------0---0---0--0--0--0--0-|----|


-|--0--0--0--0--0-0-0-0--0-0-0-0--0-0-0-0-----------------------------|
-|--8--8--8--8--7-7-7-7--2-2-2-2--5-5-5-5-----------------------------|
-|-10-10-10-10--9-9-9-9--4-4-4-4--7-7-7-7-----------------------------|
-|--0--0--0--0--0-0-0-0--0-0-0-0--0-0-0-0-----------------------------|
-|-10-10-10-10--9-9-9-9--4-4-4-4--7-7-7-7-----------------------------|
-|--------------------------------------------------------------------|


--0-0--0-0-0-0-0---0-0-0-0-0---0-0-0-0-0--0-0-0-0-0--0-|--------------|
--0-0-12-x-x-x-x--12-x-x-x-x--12-x-x-x-x-12-x-x-x-x-12-|--------------|
--0-0--0-0-0-0-0---0-0-0-0-0---0-0-0-0-0--0-0-0-0-0--0-|--------------|
--0-0-12-x-x-x-x--12-x-x-x-x--12-x-x-x-x-12-x-x-x-x-12-|--------------|
--0-0--0-0-0-0-0---0-0-0-0-0---0-0-0-0-0--0-0-0-0-0--0-|--------------|
--0-0--0-0-0-0-0---0-0-0-0-0---0-0-0-0-0--0-0-0-0-0--0-|--------------|

============================================================================
10. Farther
============================================================================

The chorus is played by hitting the palms of your
fingers against the strings right above the pickups
along with the beat.

Verse:

-|-----0----------0----------0--------0------------0--------0----------|
-|-3-3---3--3-3-3---3----3-3---3--3-3---3-3----3-3---3--3-3---3-3------|
-|---------------------------------------------------------------------|
-|---------------------------------------------------------------------|
-|-----------------------2-2-2-2--2-2-2-2-2----3-3-3-3--3-3-3-3-3------|
-|-3-3-3-3--3-3-3-3-3--------------------------------------------------|

-----0--------0---|----------------------------------------------------|
-3-3---3--3-3---3-|----------------------------------------------------|
------------------|----------------------------------------------------|
------------------|----------------------------------------------------|
-3-3-3-3--3-3-3-0-|----------------------------------------------------|
------------------|----------------------------------------------------|

Chorus:

-|-0--0--0-0---0-0--0--0--0----0--0--0-0---0-0--0--0--0----------------|
-|-3--3--3-3---3-3--3--3--3----3--3--3-3---3-3--3--3--3----------------|
-|-0--0--0-0---0-0--0--0--0----0--0--0-0---0-0--0--0--0----------------|
-|-0--0--0-0---0-0--0--0--0----2--2--2-2---2-2--2--2--2----------------|
-|-2--2--2-2---2-2--2--2--2----2--2--2-2---2-2--2--2--2----------------|
-|-3--3--3-3---3-3--3--3--3--------------------------------------------|

-0--0--0-0---0-0--0--0--0----0--0--0-0---0-0--0--0--0-|----------------|
-3--3--3-3---3-3--3--3--3----3--3--3-3---3-3--3--3--3-|----------------|
-0--0--0-0---0-0--0--0--0----0--0--0-0---0-0--0--0--0-|----------------|
-2--2--2-2---2-2--2--2--2----2--2--2-2---2-2--2--2--2-|-x2-------------|
-3--3--3-3---3-3--3--3--3----3--3--3-3---3-3--3--3--0-|----------------|
------------------------------------------------------|----------------|

Riff played over chorus:

-----------------------------------------------------------------------|
--8----10----10h12-10--8----10h12-10--8------10/13--12-----------------|
-----------------------------------------------------------------------|
-----------------------------------------------------------------------|
-----------------------------------------------------------------------|
-----------------------------------------------------------------------|

-|-0----0----0-|-------------------------------------------------------|
-|-3----3----3-|-------------------------------------------------------|
-|-0----0----0-|-------------------------------------------------------|
-|-0----2----2-|-------------------------------------------------------|
-|-2----2----3-|-------------------------------------------------------|
-|-3-----------|-------------------------------------------------------|

============================================================================
11. Darkness
============================================================================

 Tuning:
F# A C# F# G# E

Outro Tuning:
F# A C# F# G# F#

Intro:

-|-----------0------------------------0--------------|
-|------10-----10-----------------3-----3------------|
-|---------9--------9---------------2-------3p2-2p0--|
-|---10----------10---10--------3---------3----------|
-|-9--------------------------2----------------------|
-|---------------------------------------------------|


--------------0-----------------------0---------------|--|
---------10-----10----------------3-------------------|--|
------------9--------9--------------2-----------------|--|
------10----------10---10-------3---------------------|--|
--2/9-------------------------2-----------------------|--|
------------------------------------------------------|--|

  Another day begins ....

-|-----------0----------------------0---|
-|-------8-----8----------------3-------|
-|---------7-------7--------------2-----|
-|-----8---------8---8--------3---------|
-|-2/7----------------------2-----------|
-|--------------------------------------|


Chorus:

-|---------0----0----0--0--0----------0--0-0-------------------|
-|--------10---10---10-10-10----------3--3-3-------------------|
-|---------9----9----9--9--9----------2--2-2--2b3r2-2b3p0------|
-|-x-x----10---10---10-10-10--------3-3--3-3----------------x3-|
-|-x-x-----9----9----9--9--9--------2-2--2-2-------------------|
-|-x-x-----9----9----9--9--9--------2-2--2-2-------------------|


---0-0-0--0-0-0------0-0-0-0-0-|----|
---8-8-8--8-8-8------3-3-3-3-3-|----|
---7-7-7--7-7-7------2-2-2-2-2-|----|
---8-8-8--8-8-8------3-3-3-3-3-|----|
---7-7-7--7-7-7------2-2-2-2-2-|----|
---7-7-7--7-7-7------2-2-2-2-2-|----|

After 2nd Chorus and 2 times of the verse riff:

-|--0--0--0--0--0--0--0--0---0-0-0-0-0-0-0-0--------|
-|-10-10-10-10-10-10-10-10---3-3-3-3-3-3-3-3--------|
-|--9--9--9--9--9--9--9--9---2-2-2-2-2-2-2-2--------|
-|-10-10-10-10-10-10-10-10---3-3-3-3-3-3-3-3----x2--|
-|--9--9--9--9--9--9--9--9---2-2-2-2-2-2-2-2--------|
-|--9--9--9--9--9--9--9--9---2-2-2-2-2-2-2-2--------|


----0--0--0--0--0--0--0--0---0-0-0-0-0-0-0-0-------|---|
---13-13-13-13-13-13-13-13---3-3-3-3-3-3-3-3-------|---|
---12-12-12-12-12-12-12-12---2-2-2-2-2-2-2-2-------|---|
---13-13-13-13-13-13-13-13---3-3-3-3-3-3-3-3----x2-|---|
---12-12-12-12-12-12-12-12---2-2-2-2-2-2-2-2-------|---|
---12-12-12-12-12-12-12-12---2-2-2-2-2-2-2-2-------|---|

Outro:

----0---------0-----------------------0-------------0---|
--/10--------10\--------------------/10------------10\--|
--/-9---------9\--------------------/-9-------------9\--|
--/10--------10\--------------------/10------------10\--|
--/-9---------9\--------------------/-9-------------9\--|
--/-9---------9\--------------------/-9-------------9\--|


-------0--0--0-------------0-0-0------------|
------10-10-10-------------3-3-3------------|
-------9--9--9-------------2-2-2------------|
-3/10-10-10-10-------------3-3-3------------|
-2/-9--9--9--9-------------2-2-2------------|
-2/-9----------9h10-9p0--2-------2h3p2p0----|


---------0--0-----------------3-3-------------------|
--------10-10----10-----------2-2-------------------|
---------9--9----------9b10---3-3-2b3r2b3r2b3r2p0---|
---3/10-10-10-10----10--------2-2-------------------|
---2/9---9--9-----------------2-2-------------------|
---2/9----------------------2-----------------------|


--0--0--0----12^-----------0-0-0-----------|
-10-10-10-------12^--------3-3-3-----------|
--9--9--9----------12^-----2-2-2-----------|
-10-10-10------------------3-3-3-----------|
--9--9--9----------------------------------|
--9--9--9----------------2-------2-3-2-0---|


------0--0--0---12^-----------0-0---------5^---|
-----10-10-10-------12^-------3-3------5^------|
------9--9--9-----------12^---2-2---5^---------|
-----10-10-10-----------------3-3--------------|
------9--9--9-----------------2-2--------------|
-2/9------------------------2------------------|


------0------0------12^----------------------0--------0------|
-----10-10-----10-------12^--------------------3----3---3----|
------9----9----------------12^----------2p0--------------2--|
-----10--------------------------------3----------2----------|
------9------------------------------2-----------------------|
-2/9---------------------------------------------------------|

============================================================================
12. Darwin
============================================================================

Tuning: Standard

This is a simple song that can be played with the chords A E and B
all the way through, progressing like this A  E  A  E  B  E  B  E,
then for the bridge, E A 4 times

Intro

(A)
(B)
(E)
(B)
(A)
(B)
(E)
(B)
e|--0--x-x---2--/--7--\--2-2-2----5--x-x---7--\--0----2--|
B|--2--x-x---4--/--9--\--4-4-4----5--x-x---7--\--0----4--|
G|--2--x-x---4--/--9--\--4-4-4----6--x-x---8--\--1----4--|
D|--2--x-x---4--/--9--\--4-4-4----7--x-x---9--\--2----4--|
A|--0--x-x---2--/--7--\--2-2-2----7--x-x---9--\--2----2--|
E|-----------2--/--7--\--2-2-2----5--x-x---7--\--0----2--|

*Alternate intro by Jeff Wells
(BLUEYEBLIND@hotmail.com)*
-|-4-4---5------0-------4-4-4-4----4-4---5------0-------4--|
-|-4-4---5------0-------4-4-4-4----4-4---5------0-------4--|
-|-4-4---6------1-------6-6-6-6----4-4---6------1-------6--|
-|-6-6---7------2-------6-6-6-6----6-6---7------2-------6--|
-|-6-6---7------2-------4-4-4-4----6-6---7------2-------4--|
-|-4-4---5------0------------------4-4---5------0----------|

Bass Line before verse:
(also Chorus)

G|--------------------|
D|--------------------|  Repeat
A|--2--------4--2-----|
E|-----0--4--------0--|

Play over bass line

(kevin usses echo effects but this sounds similar)

e|------------------------------4--7--4---------4--7--|
B|--9--5--0----9--5--0----5--7------------5--7--------|


Bass Line for verse:

G|----------------------------------------------------|
D|-------------------------------2--------------------|
A|--0--2--------0--2----------4-----1--2--0--2--------|
E|--------4--0--------4--0----------------------4--0--|

Played over first verse with bass line

(Play when he sings: And a space man fucked an ape...)

e|-------------------------|
B|-------------------------|
G|-------------------------|
D|--7--6--7--6--11--9--14--|


Played over bass line for chorus:

(We're lacking somthing...)

e|--5h7--5h7--7h9--7h9--5h7--5h7--7--0--|


Played over second verse with bass line:

e|--------------0-----------------0-------------------------|
B|-------10--0-----0--5--------0-----2--4-----------4-----5-|
G|--4/9------------------4/13--------------4--2--4-----2----|

e|---------------4--x0-----0-------------------5-|
B|--4/10--0--5---------------2--4--0--4--4/5---5-|
G|---------------------2-------------------------|


Bridge: Played with distortion after second chorus


(Boom boom tick tick and who skipped the long play..)

e|------------------------|
B|--9-9-9-9-------5-------|
G|--9-9-9-9---6-6----6-6--| X4
D|--9-9-9-9---7-7----7-7--|
A|--7-7-7-7---7-7----7-7--|
E|------------5-5----5-5--|

End playing the intro about 4 times as it fades off

============================================================================
13. Slow-Motion
============================================================================

Standard Tuning
Capo on 1st fret
Notes relative to Capo

Played with slight distortion
the ^ indicates a harmonic

Intro/Verse:

-----3p2---0--------------------------------0-----------------------|
---3-----3---------x-----x-x-x--------3---3-------------------------|
----------------2--x-----x-x-x----------0-----0---------------------|
-0------------0-2--x-----x-x-x------2-------------------------------|
-------------------------x-x-x--0-2---------------------------------|
----------------------3---------------------------------------------|


-----3p2---0--------------------------------------------------------|
---3-----3---------------x-x-x--------3---12^-------------x---------|
----------------2--------x-x-x------------12^--7^------x--x---------|
-0------------0-2--------x-x-x------2-----12^--7^------x--x---------|
-------------------------x-x-x--0-2--------------------x--x---------|
----------------------3---------------------------------------------|

Verse 1:

-|-2-|-0-|-3-|-0-|----|-0-|-----------------------------------------|
-|-3-|-2-|-3-|-3-|----|-2-|-----------------------------------------|
-|-2-|-2-|-0-|-0-|----|-2-|-----------------------------------------|
-|-0-|-2-|-0-|-2-|-x4-|-2-|-----------------------------------------|
-|---|-0-|-2-|-2-|----|-0-|-----------------------------------------|
-|---|---|-3-|---|----|---|-----------------------------------------|

Chorus:

-||-2-|-0-|-0-|---|-2-|-0-|-0-|-3-|---------------------------------|
-||-3-|-2-|-3-|---|-3-|-2-|-3-|-3-|---------------------------------|
-||-2-|-2-|-0-|---|-2-|-2-|-0-|-0-|---------------------------------|
-||-0-|-2-|-2-|---|-0-|-2-|-2-|-0-|---------------------------------|
-||---|-0-|-2-|---|---|-0-|-2-|-2-|---------------------------------|
-||---|---|---|---|---|---|---|-3-|---------------------------------|


-|-2-|-0-|-2-|--------2-----2-----2------------||-------------------|
-|-3-|-2-|-3-|------------3-------3--------12^-||-------------------|
-|-2-|-2-|-4-|-4--------4-----4---4--------12^-||-------------------|
-|-0-|-2-|-4-|------4----------------------12^-||-------------------|
-|---|-0-|-2-|---2-----------------------------||-------------------|
-|---|---|---|---------------------------------||-------------------|

Verse 2:                         ..... a most beautiful ruby red

-|-2-|-0-|-3-|-0-|----------|-2-|-0-|-3-|---------------------------|
-|-3-|-2-|-3-|-3-|----------|-3-|-2-|-3-|---------------------------|
-|-2-|-2-|-0-|-0-|----x3----|-2-|-2-|-0-|---------------------------|
-|-0-|-2-|-0-|-2-|----------|-0-|-2-|-0-|---------------------------|
-|---|-0-|-2-|-2-|----------|---|-0-|-2-|---------------------------|
-|---|---|-3-|---|----------|---|---|-3-|---------------------------|

And at home ....  my sister's eating paint chips again ....

-0-----3----3-3-----0----0-0-----2----2-2-----3----3-3--------------|
-2-----3----3-3-----2----2-2-----3----3-3-----3----3-3--------------|
-2-----0----0-0-----2----2-2-----4----4-4-----0----0-0--------------|
-2-----0----0-0-----2----2-2-----4----4-4-----0----0-0--------------|
-0-----2----2-2-----0----0-0-----2----2-2-----2----2-2--------------|
-------3----3-3-------------------------------3----3-3--------------|

I shut the door to her moaning ......

-3----3-3------0----0-0------2----2-2---2-2-2-2-2-2-2-2-------------|
-3----3-3------2----2-2------3----3-3---3-3-3-3-3-3-3-3-------------|
-0----0-0------2----2-2------4----4-4---4-4-4-4-4-4-4-4-------------|
-0----0-0------2----2-2------4----4-4---4-4-4-4-4-4-4-4-------------|
-2----2-2------0----0-0------2----2-2---2-2-2-2-2-2-2-2-------------|
-3----3-3-----------------------------------------------------------|

See my neighbor .......

-3----3-3-----0----0-0-----0---0-0---0-0-0-0------------------------|
-3----3-3-----2----2-2-----3---3-3---3-3-3-3------------------------|
-0----0-0-----2----2-2-----0---0-0---0-0-0-0------------------------|
-0----0-0-----2----2-2-----2---2-2---2-2-2-2------------------------|
-2----2-2-----0----0-0-----2---2-2---2-2-2-2------------------------|
-3----3-3-----------------------------------------------------------|

There's an arc to his fist .....

-3--3--3--3--3--3--3-----0------------------------------------------|
-3--3--3--3--3--3--3-----2------------------------------------------|
-0--0--0--0--0--0--0-----2------------------------------------------|
-0--0--0--0--0--0--0-----2------------------------------------------|
-2--2--2--2--2--2--2-----0------------------------------------------|
-3--3--3--3--3--3--3------------------------------------------------|

What a beautiful thing .....

-2-----2--------2-----2--------2-------2------0---------------------|
-3-------3------2-------2------3-----3--------2---------------------|
-4--------------2--------------4--------------2---------------------|
-4--------------2--------------4--------------2---------------------|
-2--------------0--------------2--------------0---------------------|
--------------------------------------------------------------------|

Verse 3:

-|-2-|-0-|-3-|-0-|--------------------------------------------------|
-|-3-|-2-|-3-|-3-|--------------------------------------------------|
-|-2-|-2-|-0-|-0-|--------------------------------------------------|
-|-0-|-2-|-0-|-2-|-x3-----------------------------------------------|
-|---|-0-|-2-|-2-|--------------------------------------------------|
-|---|---|-3-|---|--------------------------------------------------|

Chorus/Outro:

-|-2-|-0-|-0-|---|-2-|-0-|-0-|-3-|---|-2-|-0-|-2-|-------2-----2----|
-|-3-|-2-|-3-|---|-3-|-2-|-3-|-3-|---|-3-|-2-|-3-|-----3-----3---3--|
-|-2-|-2-|-0-|---|-2-|-2-|-0-|-0-|---|-2-|-2-|-4-|-4-4-----4--------|
-|-0-|-2-|-2-|---|-0-|-2-|-2-|-0-|---|-0-|-2-|-4-|------------------|
-|---|-0-|-2-|---|---|-0-|-2-|-2-|---|---|-0-|-2-|------------------|
-|---|---|---|---|---|---|---|-3-|---|---|---|---|------------------|

End on:

-|-0-|-2-|----------------------------------------------------------|
-|-2-|-3-|----------------------------------------------------------|
-|-2-|-2-|----------------------------------------------------------|
-|-2-|-0-|----------------------------------------------------------|
-|-0-|---|----------------------------------------------------------|
-|---|---|----------------------------------------------------------|

============================================================================
NOTE: Diecent album. Shows alot of pottential.
      I thought it was bad at first, becuase
      I expected to sound as good as the first
      album. But you grow on it as it grows on
      you ( if you catch my drift ). Well, hope
      you like most of it is perfect. Well... ...ENJOY!!!

                                              -Asa
Tap to rate this tab
# A B C D E F G H I J K L M N O P Q R S T U V W X Y Z