Song name
# A B C D E F G H I J K L M N O P Q R S T U V W X Y Z

Third Eye Blind - Faster tab

Tabbed by: Shawn Klapproth
Tuning:EADGBe
Third Eye Blind - Faster
email: Shawnzy4@hotmail.com

I was tired of having to change the tuning on my guitar to play this song
so I wrote it in standard tuning, it's not perfect, but it works nice


Play through the verse
e------------------|
B-3---------7------|
G-5----4----7------|
D-5-x8-5-x8-7-x16--|
A-3----2----5------|
E------------------|

Horny and burnt out now is how it always ends for me yeah
Chemicals wear me down in your summertime bacchanalian
I saw you go faster
Then the morning comes
She walks away like a lady
It's always the fallen ones
I think are always gonna to save me

Prechorus
e---7-----|
B-----8---|
G-7-----7-|
D---------|
A---------|
E---------|

I saw you go
Faster

1st Chorus
e------------------------------------------|
B-----------3-------------------3----------|
G-4----4----5----4----4----4----5----4-----|
D-5-x4-5-x8-5-x8-5-x8-5-x8-5-x8-5-x8-5-x8--|
A-5----2----3----2----5----2----3----2-----|
E-3-------------------3--------------------|

whoooooa
I wanna get off one time and not apologize
whoooooa
You gotta steal the time from a life that's passing by

e------------------|
B-3---------7------|
G-5----4----7------|
D-5-x8-5-x8-7-x16--|
A-3----2----5------|
E------------------|

In bed she flexes her knees to try and abate the feeling
She mouths the words please to the poster on the ceiling
I saw you go

prechorus type part for the second verse
e-----7-------7-------|
B-8-------8-------8---|
G---7---7---7---7---7-|
D---------------------|
A---------------------|
E---------------------|

Faster right in front of me
She stares at him so madly
She's got the nerve to say
She wants to fuck that boy so badly

Prechorus
e---7-----|
B-----8---|
G-7-----7-|
D---------|
A---------|
E---------|

I saw you go faster


2nd Chorus
e------------------------------------------|
B-----------3-------------------3----------|
G-4----4----5----4----4----4----5----4-----|
D-5-x4-5-x8-5-x8-5-x8-5-x8-5-x8-5-x8-5-x8--|
A-5----2----3----2----5----2----3----2-----|
E-3-------------------3--------------------|

e------------------------------------------|
B----------------3-------------------------|
G-4---------2----5----9----10----8---------|
D-5-x8-2-x8-3-x8-5-x8-9-x8-10-x8-10-x16----|
A-5----2----3----3----7----8-----10--------|
E-3----0----1--------------------8---------|

Whooooa
I wanna get off one time and not apologize
Whooooa
You gotta steal the time from a life that's passing by
I want to get off one time and look you in the eyes
I want to get off one time, get off one time

e---------------------------------2---2-2---2-2-2-2---2-2---2-2-2---|
B-3---3-3---3-3-3-0---0-0---0-0-0-3---3-3---3-3-3-3---3-3---3-3-3---|
G-5---5-5---5-5-5-4---4-4---4-4-4-2---2-2---2-2-2-2---2-2---2-2-2---|
D-5---5-5---5-5-5-5---5-5---5-5-5-0---0-0---0-0-0-0---0-0---0-0-0---|
A-3---3-3---3-3-2-2---2-2---2-2-2-----------------------------------|
E-------------------------------------------------------------------|

I was hoping you would be waiting there for me lately


e------------------|
B-3---------7------|
G-5----4----7------|
D-5-x8-5-x8-7-x16--|
A-3----2----5------|
E------------------|

I was hoping you would be waiting there for me lately
But you're not the kind who would be waiting, not for anybody
You're not the kind of girl who would be waiting for anybody not even me

e------------------------------|
B-----1---------0---------5----|
G----2--2------4--4------5-----|
D---2---------4---------5------|
A-0--------2---------3---------|
E------------------------------|

ooooooo
Just one time
ooooooo
I could go off right now

Final Chorus
e-----------------------------------------------------|
B----------------------3-------------------3----------|
G------------4----4----5----4----4----4----5----4-----|
D-9----10----5-x4-5-x8-5-x8-5-x8-5-x8-5-x8-5-x8-5-x8--|
A-9-x8-10-x8-5----2----3----2----5----2----3----2-----|
E-7----8-----3-------------------3--------------------|

e-----------------------|
B-----------------------|
G------------12----4----|
D-9-x3-10-x5-12-x4-5-x4-|
A-9----10----10----5----|
E-7----8-----------3----|

whoooa
I want to get off one time and not apologize
whoooa
You got to steal the time from a life that's passing by

Not for sale

Ending
e-------|
B-------|
G-------|
D-9-10--|
A-9-10--|
E-7-8---|
Tap to rate this tab
# A B C D E F G H I J K L M N O P Q R S T U V W X Y Z