Song name
# A B C D E F G H I J K L M N O P Q R S T U V W X Y Z

Third Eye Blind - Persephone tab

Persephone
Third Eye Blind

This tab ended up being too difficult for me to finish...here is the beginning.  
a more experienced guitarist can pick up from here.  I got the tuning from the band on Myspace, 
it is correct.  Thanks for any help!

E|------------------------------------------------|
A|------------------------------------------------|
F|-9----------------------------------------------|
D|-7----------------------------------------------|
A|-5----------------------------------------------|
F|------------------------------7--9--------------|

	She’s barely moving now………warming in the sun

E|------------------------------------------------|
A|---------h-----h--------------------------------|
F|---------------------------9----9---------------|
D|------------h-----h--------7-------7------------|
A|------h--------------------5----------5---------|
F|--4---------------------------------------------|

	warming in the sun.      I left her colder now

E|--------------h---------------------------------|
A|--------h---------------------h-------h---------|
F|-6-------------------------------h------h-------|
D|-4---------------------------------h------h-----|
A|-2-------------------------h--------------------|
F|------------------------4-----------------------|

     than almost anyone      warming in the sun

E|---------------------------------------h--------|
A|-----------------------------------------h------|
F|-------------------------------------------h----|
D|---------------------------------------------h--|
A|------------------------------------------------|
F|----5----------------9----11------12------------|

      warming in the sun         and the rod she finds is golden

E|------------------------------------------------|
A|--------------------------------------h---------|
F|----------------------------------------h-------|
D|------------------------------------------h-----|
A|------------------------------------------------|
F|---11----------------------------12-------------|

     and I can’t take my eyes away	  I’m no longer welcome

E|------------------------------------------------|
A|------------------------------------------------|
F|------------------------------------------------|
D|------------------------------------------------|
A|------------------------------------------------|
F|------------9---------------------4-------------|

    and this is      not my place to stay
Tap to rate this tab
 
# A B C D E F G H I J K L M N O P Q R S T U V W X Y Z