Song name
# A B C D E F G H I J K L M N O P Q R S T U V W X Y Z

Third Eye Blind - Misfits tab

Song: Misfits
Artist: Third Eye Blind
Album: Out of the Vein
Tuning:DGCFGA#

i found this on another site and touched it up a little. i think its right.

Intro/Verse:
----------------------------------------------|
----------------------------------------------|
----------------------------------------------|
-0-2--2-2-3-3--3--3-2----2--2-2--2-2--2-2-2-2-|
-0--------------------3--3--3-3--3-3--3-3-3-3-|
----------------------------------------------|

Chorus
---4--4-4----------------------------|
---3--3-3----------------------------|
---2--2-2---10-10-10-4-4-4-4--4-4--4-|
-0-0--0-0----7--7--7-2-2-2-2--2-2--2-|
-0-0--0-0----8--8--8-3-3-3-3--3-3--3-|
----------0--------------------------|

----------|
----^7----|
-------^7-|
-^7-------|
----------|
----------|

Those are the ones for me...
-4--4--4-4-4-4--4-4-4------------------------------------------------------------------------|
-3--3--3-3-3-3--3-3-3------------------------------------------------------------------------|
-2--2--2-2-2-2--2-2-2-10--10-10---------------5----5--5-5-5-5--5--5-5-5-5---5--5-5-5-5--5--5-|
-0--0--0-0-0-0--0-0-0--7---7--7-7-7-7--7--7-7-2----2--2-2-2-2--2--2-2-2-2---2--2-2-2-2--2--2-|
-0--0--0-0-0-0--0-0-0--8---8--8-8-8-8--8--8-8-3----3--3-3-3-3--3--3-3-3-3---3--3-3-3-3--3--3-|
-----------------------0---0--0-0-0-0--0--0-0------------------------------------------------|
}
Tap to rate this tab
# A B C D E F G H I J K L M N O P Q R S T U V W X Y Z