Song name
# A B C D E F G H I J K L M N O P Q R S T U V W X Y Z

Third Eye Blind - Hows It Going To Be tab

Band: Third Eye Blind
Song: How's It Going to Be
Album: Third Eye Blind
Tunning: Standard

E-A-D-G-B-e

Tabbed By: Jeff DeMatte

Chords Used:
F  133211
C  x32010
Bb x13331
G  320011


Intro: F-C-Bb

Fill:
e|-5h6-5----5h6-5-----6/8---5h6-5-----5h6-5---------------------------|
B|-------6--------6---------------6---------6--4--3---1---------------|
G|--------------------------------------------------------------------|
D|--------------------------------------------------------------------|
A|--------------------------------------------------------------------|
E|--------------------------------------------------------------------|


Verse:

 F                            C     C   Bb Bb                              
I'm only pretty sure that I can't take any-more
            F           C  C  Bb
Before you take a swing I won-der, what are we fighting 
 F                                 C   C  Bb  Bb
For When I say out loud I want to get out of this
    F                        C   C  Bb  Bb
I wonder, is there anything I'm gon-na miss
         
Pre-Chorus:

          G                          F     F   C C
I wonder How's it gonna be When you don't know me
 G                              F   F  Bb   Bb
How's it gonna be When you're sure I'm not there 
 G                       F      F   C   C                                
How's it gonna be When there's no one there to talk to you 
  G                  F   F  Bb    Bb
Between you and me Cause I don't care How's it gonna be...

Backup Guitar: F-C-Bb

Fill:
e|-5h6-5----5h6-5-----6/8---5h6-5-----5h6-5---------------------------|
B|-------6--------6---------------6---------6--4--3---1---------------|
G|--------------------------------------------------------------------|
D|--------------------------------------------------------------------|
A|--------------------------------------------------------------------|
E|--------------------------------------------------------------------|

 
Verse 2:

  F                                   C    C     Bb Bb
Where we used to laugh There's a shouting match   
                        F                                
Sharp as a thumbnail scratch A silence I can't ignore 
 C    C          Bb Bb                       F
Like the hammock    by the doorway we spent time in Swings empty 
          C  C   Bb Bb                               F          C   C  Bb Bb
I don't see lightning   like last fall When it was always about to hit me 
         
Pre-Chorus:

          G                      F  F    C C
I wonder How's it gonna be When it goes down
 G                       F     F   Bb Bb
How's it gonna be When you're not around
 G                      F    F   C    C
How's it gonna be When you found out there was nothing
  G                  F   F  Bb   Bb                        F C C Bb Bb
Between you and me Cause I don't care How's it gonna be...


Chorus: Distorted

 G             Bb                 F           C        G             Bb
How's it gonna be When you don't know me any more And how's it gonna be 


Verse 3: DISTORTED

 F                      CC   Bb Bb
Want to get myself back in again 
     F                      C C Bb Bb
The soft dive of oblivion 
 F                          C C   Bb Bb
I want to taste the salt of your skin 
F                         C C Bb Bb
The soft dive of oblivion            oblivion

Chorus: Distorted

G              Bb                 F           C              
How's it gonna be When you don't know me any more How's it gonna be...


Back up Guitar: F-C-Bb

Fill:
e|-5h6-5----5h6-5-----6/8---5h6-5-----5h6-5---------------------------|
B|-------6--------6---------------6---------6--4--3---1---------------|
G|--------------------------------------------------------------------|
D|--------------------------------------------------------------------|
A|--------------------------------------------------------------------|
E|--------------------------------------------------------------------|


Peat Peat...
Tap to rate this tab
# A B C D E F G H I J K L M N O P Q R S T U V W X Y Z