Song name
# A B C D E F G H I J K L M N O P Q R S T U V W X Y Z

Third Eye Blind - Jumper tab

e|------------------------------------------------13--13----13p12--------------|
B|-------13p12h13----12h13p12h13---15--------------------------------12--------|
G|-------------------------------------12--------------------------------------|
D|-----------------------------------------------------------------------------|
A|-----------------------------------------------------------------------------|
E|-----------------------------------------------------------------------------|

e|-------------------------------|
B|-----13/15/13------------------|
G|-------------------------------|         Just continue as many times needed
D|-------------------------------|
A|-------------------------------|
E|-------------------------------|

| /  slide up
| \  slide down
| h  hammer-on
| p  pull-off
| ~  vibrato
| +  harmonic
| x  Mute note
Tap to rate this tab
# A B C D E F G H I J K L M N O P Q R S T U V W X Y Z