Song name
# A B C D E F G H I J K L M N O P Q R S T U V W X Y Z

Third Eye Blind - Persephone tab

Persephone
by: Third Eye Blind
tabbed by: tntrekabulator@hotmail.com
Standard Tuning

This is only the intro

( )-Natural Harmonic
 /-Slide up
 \-Slide Down

|--------------------------------------------------------------|
|--------------------------------------------------------------|
|--7--------------------------------(7)-------(7)--------------|
|--7---5----5/7------------------------(7)------(7)------------|
|--9---5----5/7-----0--------(7)-------------------------------|
|-------7----7/9-----2----(7)----------------------------------|
pluck on the neck
|------------------------------------------------------------------------------------|
|-----------------------------------5---------------(7)---------(7)------------------|
|------------7--6----------5---6-----------------------------------------------------|
|--7--7/9--------9-7\5---5------------------(5)-----(5)--------(5)-------------------|
|--5------------------------7----------0---(5)-----------(5)---------(5)-------------|
|----------------------------------------2-------------------------------------------|
Tap to rate this tab
 
# A B C D E F G H I J K L M N O P Q R S T U V W X Y Z