Song name
# A B C D E F G H I J K L M N O P Q R S T U V W X Y Z

Third Eye Blind - Sharp Knife tab

Sharp Knife
by: Third Eye Blind
Standard Tuning
tabbed by: tntrekabulator@hotmail.com

This is not the entire song. I may finish it and update it later.
/-slide up
\slide down

|-----------9---------------9-------9\7------------7-------------------7\5---------|
|------10-------------10-----10------------10-----------10--9----------------------|
|-11------------11-----------------------9------------9------------9---------------|
|----------------------------------------------------------------------------------|
|----------------------------------------------------------------------------------|
|----------------------------------------------------------------------------------|

|-----------9-------------10--9--7----9-5------------9-------7-----------------------7\5--|
|------10-----10--10----------------------------10------10----10------10-9----------------|
|-11-------------11---------------------------9------------------------9-----------9------|
|-----------------------------------------------------------------------------------------|
|-----------------------------------------------------------------------------------------|
|-----------------------------------------------------------------------------------------|
                      |--------not 100% on this section-----------------------------------|
Tap to rate this tab
# A B C D E F G H I J K L M N O P Q R S T U V W X Y Z